Abarajame, Illya Kuriaki And The Valderramas (bajo)

Autor: Anónimo | 32382 visualizaciones

bueno yo soy bajista, pero ya hice 2 transcripciones
mas en guitarra de ikv, espero que le entiendan
esta rola es muy facil va igual toda
hasta en los coros, solo es cuestion de 
variar entre el riff 1 y 2 que no cambia 
mucho, escuchala y sabras bien donde van

riff 1

G|-------------------------|
D|-------------6--4--------|
A|-------4--6--------4--6--|
E|-2--4--------------------|

riff 2
|-------------------------|
|-------------6--4-----2--|
|-------4--6--------4-----|
|-2--4--------------------|

esto es en la parte despues del 3er
verso entre un coro y otro:

mientras dice:
yo aspiro a la paz tu aspiras de la otra
saqueame la dicka sin tu tropa
riff 3
|-------------------------------|
|--------------------------6--4-|
|-------4--6---6--4--6--4-------|
|-2--4--------------------------|

suerte!!! espero que le entiendan
cualquer cosa, sugerencia, que me quieran decir
o algo que se les ofresca escribanme.
y recuerden ... A mover el Coolo!!!
Calificar esta versión:
Aviso: Este fichero es trabajo propio de su transcriptor y representa su interpretación personal de la canción. El material contenido en esta página es para exclusivo uso privado, por lo que se prohibe su reproducción o retransmisión, así como su uso para fines comerciales.