El Norte Está Lleno De Frío, Ilegales (bajo)

Autor: Anónimo | 45097 visualizaciones



4Mi, 2La, 2Mi, Si
...............................................................................
Mi)
----------------------------------------------
----------------------------------------------
----------------------------------------------
--0--0--0--0--0--0--0--0--0--0--0--0----5--3--

La)
----------------------------------------------
----------------------------------------------
--0--0--0--0--0--0--0--0--0--0--0--0----5--3--
----------------------------------------------

Si)
----------------------------------------------
-------------------------------------------2--
--2--2--2--2--2--2--2--2--2--2--2--2----5-----
----------------------------------------------
sigue
-----
-----
--2--
-----
sigue
-------------------------------
----------------------------2--
--2----------------------5-----
-------------------------------
sigue
---------------------------------------------
---------------------------------------------
--2--2--2--2--2--2--2--2---7--7--7--7--7--7--
---------------------------------------------





Calificar esta versión:
Aviso: Este fichero es trabajo propio de su transcriptor y representa su interpretación personal de la canción. El material contenido en esta página es para exclusivo uso privado, por lo que se prohibe su reproducción o retransmisión, así como su uso para fines comerciales.