Dama Antañona, Ilan Chester (tablatura)

Autor: firexX123 | 25063 visualizaciones

Dama antañona

1era Parte

E----------------------------------------------------------------0---------------------------------------0------
B----------------------0---1------------1---3---0-------3--------1--------------------0---2---3-----------
G-------------1---2------------2-----------------------------------------2--------2---------------------------
D----2---4------------------------------------------------------------------------------------------------------
A----------------------------------------------------------------------------------------------------------------
E----------------------------------------------------------------------------------------------------------------

E----1-----0-----1-----5-----3-----1-----0------------1-----0------------------------------------------
B-------------------------------------------------------------------------3------0-------1-------3---------
G----2-----0-----2-----5-----4-----2-----0------------2-----0-----------------------------------------
D-------------------------------------------------------------------------3------0-------2-------3------
A------------------------------------------------------------------------------------------------------------
E------------------------------------------------------------------------------------------------------------

E------------------------------------------------------------------------------------------------------------
B------5------0-------1-----------3----1----0-------------------------------------------------------------
G---------------------------------------------------------1----2----4-------------1----------------------
D------5------0-------2---------------------------4------------------------4----------------------------
A------------------------------------------------------------------------------------------------------------
E------------------------------------------------------------------------------------------------------------

2da Pare
E-----------5---------------2-----0-------------------------------------------------------------------2----
B------5---------------2----------------2------------3---------2---2------------------------3-------------
G----------------------------------------------2-------------------------------4---3---4-------------------
D------------------------------------------------------------------------------------------------------------
A------------------------------------------------------------------------------------------------------------
E------------------------------------------------------------------------------------------------------------

E-----7-------5----4-----7------5----------------5-----4---------------4-----2-------------2------0?
B-------------------------------------------7-----------------------5--------------------3-----------------
G------------------------------------------------------------------------------------------------------------
D------------------------------------------------------------------------------------------------------------
A------------------------------------------------------------------------------------------------------------
E------------------------------------------------------------------------------------------------------------

E---------------2----3----2-------------------------------------------------------------------------------------
B----2---------------------------2----3----4----5----3------------2-----3--------5----6-----5--------
G---------------------------------------------------------------4---------------------------------------------
D------------------------------------------------------------------------------------------------------------
A------------------------------------------------------------------------------------------------------------
E------------------------------------------------------------------------------------------------------------

E------------------------------------------------------------------------------------------------------------
B---------2-----3----3-----2------------------------------------------------------------------------------
G---4------------------------------4----2----1-----4----2----------------------------2--1--2----------
D------------------------------------------------------------------4-------2--1--2------------------------
A------------------------------------------------------------------------------------------------------------
E------------------------------------------------------------------------------------------------------------

E------------------2----0-----------------------------------------------------------------------------5---
B----2--1--2------------------3----0------------------------------------2--1--2----5--4--5----------
G--------------------------------------------1---------------2--1--2-------------------------------------
D---------------------------------------------------2-------------------------------------------------------
A------------------------------------------------------------------------------------------------------------
E------------------------------------------------------------------------------------------------------------
Calificar esta versión:
Aviso: Este fichero es trabajo propio de su transcriptor y representa su interpretación personal de la canción. El material contenido en esta página es para exclusivo uso privado, por lo que se prohibe su reproducción o retransmisión, así como su uso para fines comerciales.