Heroe, Il Divo (acordes)

Autor: Anónimo | 29066 visualizaciones

dodososfafasosfamlasosmiresosresosmsisolsossolsosmsolm


Il Divo - Héroe

Intro: Sol# - Fam - Do# -La# - Re#
e|----4-3-4/6-4-4-3-3h4----4-3-4/6-4-4-3-1-3-4---2h4---------
G|--4--------------------4---------------------2-----2-------
B|------------------------------------------------------1-3--
D|-----------------------------------------------------------
A|-----------------------------------------------------------
E|-----------------------------------------------------------

Sol#
Como un libro
Fa#
Que no sabes el final
Do#
Y te asusta lo que lees
Re#
Así la vida es

Sol#
Cuando naces
Fa#
Ya te expones al dolor
Mi
Y de a poco y con valor
Re#
Logras crecer

[Coro]
Sol#
Y como libro el corazón
Fam
Nos enseña que hay temor
Do#
Que Hay fracasos y maldad
 La#                 Re# Sol#
Que hay batallas que ganar

Y en cada pagina el amor
Fam
Nos convierte en luchador
Do#
Y descubres lo común
Re#                 Sol#
No hay un héroe como tu

Sol#m Fa#

Sol#
Son muy pocos
Fa#
Que se arriesgan por amor
Do#
Pero tú tienes la fe
Re#
Y eso lo es todo

Sol#
No decaigas
Fa#
Que vivir es aprender
Mi
Y no hay nada que temer
Re#
Si crees en ti


[Coro]
Sol#
Y como libro el corazón
Fam
Nos enseña que hay temor
Do#
Que Hay fracasos y maldad
 La#                 Re# Sol#
Que hay batallas que ganar

Y en cada pagina el amor
Fam
Nos convierte en luchador
Do#
Y descubres lo común
Re#                 Sol#
No hay un héroe como tu

[Puente]
Mi      Si
Solo Dios
Fa#
Sabe donde y cuando
Mi           Si
La vida no se irá
Fa#/Si/Fa#/Si
Los has hecho bien
Mi        Si        Fa#
Solo con un sueño, solo, sabrás
Mi             Si Do#
Sabrás como vencer

[Coro]
La#
Y como libro el corazón
Solm
Nos enseña que hay temor
Re#
Que Hay fracasos y maldad
 Do                 Fa La#
Que hay batallas que ganar

Y en cada pagina el amor
Solm
Nos convierte en luchador
Re#
Y descubres lo común
Fa                 La#
No hay un héroe como tu

Re#m  Do#   Si
           Do#       La#
No hay un héroe como tu
Solm - Re# - Fa - La#

Fin
e|----6-5-6/8-6-6-5-6-----6-5-6/8-6-6-5-----------5-6--
G|--6------------------6----------------8-10-11-4------
B|-----------------------------------------------------
D|-----------------------------------------------------
A|-----------------------------------------------------
E|-----------------------------------------------------





Calificar esta versión:
Aviso: Este fichero es trabajo propio de su transcriptor y representa su interpretación personal de la canción. El material contenido en esta página es para exclusivo uso privado, por lo que se prohibe su reproducción o retransmisión, así como su uso para fines comerciales.