Himno De Puerto Rico, Himnos Nacionales (tablatura)

Autor: Anónimo | 15735 visualizaciones



G|-1-2-----------2--------0-----------0------------------------|
D|--------2-3----------------3-----2-------3-----0--2-----3--2-|
A|-------------------------------------------------------------|
E|-------------------------------------------------------------|
B|-------------------------------------------------------------|

G|-0-------------------0--------------0---2--3----3------2-----|
D|----3----2-----------------------4-------------------------3-|
A|-------------------------------------------------------------|
E|-------------------------------------------------------------|
B|-------------------------------------------------------------|

G|------0--2--0------0----0----2-3----2-1---2---0-----0---2--3-|
D|-2-3-----------3------4--------------------------4-----------|
A|-------------------------------------------------------------|
E|-------------------------------------------------------------|
B|-------------------------------------------------------------|

G|-2-----0---------------------2---0--2-3----2--0--------------|
D|---------3-2--3--0-------3-----------------------3--3---3--2-|
A|----------------------3--------------------------------------|
E|-------------------------------------------------------------|
B|-------------------------------------------------------------|

G|-------------------2--2--0--0---------0--2---2---2---2---2---|
D|-2--0------0--2----------------3-2--3------------------------|
A|-------4---------0-------------------------------------------|
E|-------------------------------------------------------------|
B|-------------------------------------------------------------|

G|------------0--2---4---2----4-------0----------------0-------|
D|--4--2---4---------------------4-----------------------------|
A|-------------------------------------------------------------|
E|-------------------------------------------------------------|
B|-------------------------------------------------------------|

G|------0---2--0---------------0---2-4---2--0-------------2--0-|
D|---4-------------4----2--4-------------------4------2--------|
A|-------------------------------------------------------------|
E|-------------------------------------------------------------|
B|-------------------------------------------------------------|

G|--------------------------------2-0---------2--4----6--7-----|
D|--3------2----3-2---0-------2---------3----------------------|
A|-------------------------------------------------------------|
E|-------------------------------------------------------------|
B|-------------------------------------------------------------|

Espero que lo disfruten todos mis compatriotas





Calificar esta versión:
Aviso: Este fichero es trabajo propio de su transcriptor y representa su interpretación personal de la canción. El material contenido en esta página es para exclusivo uso privado, por lo que se prohibe su reproducción o retransmisión, así como su uso para fines comerciales.