Himno De Catalunya, Himnos Nacionales (tablatura)

Autor: Anónimo | 43469 visualizaciones



Hola soy Simon P, y mi transcripción es el himno de Catalunya,
els Segadors. Va dedicada a los catalanes.
Suena así:
Es importante en las parte de bon cop de falç se toque con fuerza

----------------------------------------
----------------------------------------
-----------------------------0----------
--------0--------------0-2-2---2-0------
--0-2-3---2-3-0------3-------------3----
----------------------------------------
Catalunya triunfant  tornarà a ser rica i plena
----------------------------------------
----------------------------------------
----------------------------------------
----0-2-3-----------------0-3-2-0-------
--3-------2-3-5-------2-3---------2-3-0-
----------------------------------------
enderrera aquesta gent tan ufana i tan superba

----------------------------------------
----------------------------------------
----------------------------------------
----------------------2-3-3-3-2-0-2-----
--0-0-0-0---------7-7---------------2h3-  X2
----------------------------------------
Bon cop de falç¡¡Bon cop de falç defensors de la terra

----------------------------------------
----------------------------------------
-----------------------------0----------
--------0--------------0-2-2---2-0------
--0-2-3---2-3-0------3-------------3----
----------------------------------------
Ara és hora,segadors¡ Ara és hora de estar alerta¡

---------------------------------------
----------------------------------------
----------------------------------------
----0-2-3-----------------0-3-2-0-------
--3-------2-3-5-------2-3---------2-3-0-
----------------------------------------
Per quan vingui un altre juny esmolem ben bé les eines¡

----------------------------------------
----------------------------------------
----------------------------------------
----------------------2-3-3-3-2-0-2-----
--0-0-0-0---------7-7---------------2h3- X2
----------------------------------------
Bon cop de falç¡¡Bon cop de faç defensors de la terra

----------------------------------------
----------------------------------------
-----------------------------0----------
--------0--------------0-2-2---2-0------
--0-2-3---2-3-0------3-------------3----
----------------------------------------
Quetremoli l'enemic, enveient la nostra ensenya

----------------------------------------
----------------------------------------
----------------------------------------
----0-2-3-----------------0-3-2-0-------
--3-------2-3-5-------2-3---------2-3-0-
----------------------------------------
Com fem caure espigues d'or quan convé seguem cadenes

----------------------------------------
----------------------------------------
----------------------------------------
----------------------2-3-3-3-2-0-2-----
--0-0-0-0---------7-7---------------2h3- X2
----------------------------------------
Bon cop de falç¡¡Bon cop de faç defensors de la terra

Qualquier duda, error o sugerencia e-mail a hey_30_seconds@hotmail.com





Calificar esta versión:
Aviso: Este fichero es trabajo propio de su transcriptor y representa su interpretación personal de la canción. El material contenido en esta página es para exclusivo uso privado, por lo que se prohibe su reproducción o retransmisión, así como su uso para fines comerciales.