Himno De Peru, Himno Nacionales (tablatura)

Autor: Jossimar2010 | 17438 visualizaciones

e-------------------------------------------------------------------------------------
B-----------6-------------------------------------------------------------------------
G---5---5-------5----5---7---2----5---3---2---2---0------------5---5---5---5----------
D-----------------------------------------------------3---5---------------------------
A-------------------------------------------------------------------------------------
E-------------------------------------------------------------------------------------

e-------------------------------------------------------------------------------------
B-----------6-------------------------------------------------------------------------
G---5---5-------5----5---7---2----5---3---2---2---0------------5---5---5---5----------
D-----------------------------------------------------3---5---------------------------
A-------------------------------------------------------------------------------------
E-------------------------------------------------------------------------------------

e-------------------------------------------------------------------------------------
B-------------------------------------------------------------------------------------
G-----------------------7---5---3---3---2----0---2---3---3---3---7---5---3---3---2----
D---5---7---8---8---8-----------------------------------------------------------------
A-------------------------------------------------------------------------------------
E-------------------------------------------------------------------------------------

e-------------------------------------------------------------------------------------
B---1---3---4---4---4---8---6---4---4---3----6---5---3---1-------3---1----------------
G------------------------------------------------------------2-----------2------------
D----------------------------------------------------------------------------2---2/3--
A-------------------------------------------------------------------------------------
E-------------------------------------------------------------------------------------

e-------------------------------------------------------------------------------------
B---1---3---4---4---4---8---6---4---4---3----6---5---3---1-------3---1----------------
G------------------------------------------------------------2-----------2------------
D----------------------------------------------------------------------------2---2/3--
A-------------------------------------------------------------------------------------
E-------------------------------------------------------------------------------------

e-------------------------------------------------------------------------------------
B---1----------------------------------------------------1---1---3---1----------------
G-------2-------------------2-------0------------------------------------2---0--------
D-----------3---3---3---3-------3-------2------------2---------------------------3----
A-------------------------------------------3----3------------------------------------
E-------------------------------------------------------------------------------------

e-------------------------------------------------------------------------------------
B---1-------------------------------3/4---1--------1---1---1---0----1---1---1---0-----
G-------3---1---1---1---3---3---3-------------1---------------------------------------
D-------------------------------------------------------------------------------------
A-------------------------------------------------------------------------------------
E-------------------------------------------------------------------------------------


e-------------------------------------------------------------------------------------
B-----------------------------------1-------------------------------------------------
G---0---0---1---0-------1---0--------------------1---1---1---3---1--------------------
D-------------------3-----------3--------1---1-----------------------4---4---3--------
A-------------------------------------------------------------------------------------
E-------------------------------------------------------------------------------------

e-------------------------------------------------------------------------------------
B----------------------------------------------------2---2---2---6---4---2---2---1----
G-----------3---3---3---5---3---1---1---0---------------------------------------------
D---3---3------------------------------------1---1------------------------------------
A-------------------------------------------------------------------------------------
E-------------------------------------------------------------------------------------

e-------------------------------------------------------------------------------------
B-------------------------------------2---2---1---1---1---------------3/4-------------
G---1---1---1---0----1---1---1----------------------------3---3---3-------------------
D--------------------------------3----------------------------------------------------
A-------------------------------------------------------------------------------------
E-------------------------------------------------------------------------------------

e-------------------------------------------------------------------------------------
B---4---3---1-----------1-------------------------------------------------------------
G---------------3---0-------3---0----------------------------5---5---5---5------------
D-----------------------------------3---1----1---6---5---3----------------------------
A-------------------------------------------------------------------------------------
E-------------------------------------------------------------------------------------

e-------------------------------------------------------------------------------------
B-----------6-------------------------------------------------------------------------
G---5---5-------5----5---7---2----5---3---2---2---0------------5---5---5---5----------
D-----------------------------------------------------3---5---------------------------
A-------------------------------------------------------------------------------------
E-------------------------------------------------------------------------------------

e-------------------------------------------------------------------------------------
B-----------6-------------------------------------------------------------------------
G---5---5-------5----5---7---2----5---3---2---2---0------------5---5---5---5----------
D-----------------------------------------------------3---5---------------------------
A-------------------------------------------------------------------------------------
E-------------------------------------------------------------------------------------

e-------------------------------------------------------------------------------------
B-------------------------------------------------------------------------------------
G-----------------------7---5---3---3---2----0---2---3---3---3---7---5---3---3---2----
D---5---7---8---8---8-----------------------------------------------------------------
A-------------------------------------------------------------------------------------
E-------------------------------------------------------------------------------------

e-------------------------------------------------------------------------------------
B---1---3---4---4---4---8---6---4---4---3----6---5---3---1-------3---1----------------
G------------------------------------------------------------2-----------2------------
D----------------------------------------------------------------------------2---2/3--
A-------------------------------------------------------------------------------------
E-------------------------------------------------------------------------------------

e-------------------------------------------------------------------------------------
B---1---3---4---4---4---8---6---4---4---3----6---5---3---1-------3---1----------------
G------------------------------------------------------------2-----------2------------
D----------------------------------------------------------------------------2---2/3--
A-------------------------------------------------------------------------------------
E-------------------------------------------------------------------------------------

Comentarios del colaborador: *****VIVA EL PERU CARAJO***** Jhosimar Polo Blas polo__jtaxs@hotmail.com Trujillo-Peru

Calificar esta versión:
Aviso: Este fichero es trabajo propio de su transcriptor y representa su interpretación personal de la canción. El material contenido en esta página es para exclusivo uso privado, por lo que se prohibe su reproducción o retransmisión, así como su uso para fines comerciales.