Himno De Francia, Himno Nacionales (tablatura)

Autor: sabastian_rnr | 25233 visualizaciones

e-------------------------10--7---------7--------7/8---------------------
B-----------8--8--10--10---------8---8-----8----------10--7--7/8---------
G--7--7--7------------------------------------9--------------------------
D------------------------------------------------------------------------
A------------------------------------------------------------------------
E------------------------------------------------------------------------


e---------7--7--7--7--8--7--7-----------7--8--8--8--8--10--8--7----------
B--8--10-----------------------10---10-----------------------------------
G------------------------------------------------------------------------
D------------------------------------------------------------------------
A------------------------------------------------------------------------
E------------------------------------------------------------------------


e--10--10--10--7-----10--7---------------5--5--7--7/8--5-----5-----------
B-----------------8---------8---------7-------------------7----8--6------
G------------------------------7---7-------------------------------------
D------------------------------------------------------------------------
A------------------------------------------------------------------------
E------------------------------------------------------------------------


e-----------------------------------------------8--10--------------------
B--5--8--8--8--7--8--8/10---10--10--11--11--11---------10----------------
G------------------------------------------------------------------------
D------------------------------------------------------------------------
A------------------------------------------------------------------------
E------------------------------------------------------------------------

                                                    Coro:
e---------------------------------- * e--------------10--10--7-----------
B--11--10--8---8--11--10--8--8--7-- * B-----------8-------------8--8/10--
G---------------------------------- * G--7--7--7-------------------------
D---------------------------------- * D----------------------------------
A---------------------------------- * A----------------------------------
E---------------------------------- * E----------------------------------


e--------------10--10--7-------------------------------------------------
B-----------8-------------8--8/10------7--8---10--8--10--12---13---------
G--7--7--7--------------------------7------------------------------------
D------------------------------------------------------------------------
A------------------------------------------------------------------------
E------------------------------------------------------------------------


e------10--12-------12--10---7--8----------------------------------------
B--13----------10------------------10--8---------------------------------
G------------------------------------------------------------------------
D------------------------------------------------------------------------
A------------------------------------------------------------------------
E------------------------------------------------------------------------
Calificar esta versión:
Aviso: Este fichero es trabajo propio de su transcriptor y representa su interpretación personal de la canción. El material contenido en esta página es para exclusivo uso privado, por lo que se prohibe su reproducción o retransmisión, así como su uso para fines comerciales.