Song Of Suicide, Him (acordes)

Autor: checha2008 | 34760 visualizaciones

amcem7ffmaj7fadd9g


  Fadd9                    F                        Fmaj7
e|-3--------3--------3------1--------1--------1------0--------0--------0-----|
B|----1--------1--------1------1--------1--------1------1--------1--------1--|
G|-------2--------2---------------2--------2---------------2--------2--------|
D|-3------------------------3------------------------3-----------------------|
A|---------------------------------------------------------------------------|
E|---------------------------------------------------------------------------|

   G                Am
e|----------------0~0------------------------------------------
B|-------3--1--0--0~1------------------------------------------
G|----0-----------0~2------------------------------------------
D|----------------0~2------------------------------------------
A|-2--------------0~0------------------------------------------
E|-3-----------------------------------------------------------
Am             F       G               C   Em7
Sorrow rebuild me as I step out of the light

Am           F          G            C   Em7
Misery strengthen me as I say my goodbyes

  Fadd9   F     Fmaj7     G       Am   Am
I heal -- my -- wounds -- with -- grief

    Fadd9    F     Fmaj7  G      Am      G         Am
And dream -- of -- you -- and -- weep -- myself -- alive

   C           Em7
e|------------------------|
B|----------1-----------0-|
G|-------0-----------0----|
D|----2-----------0-------|
A|-3-----------2----------|
E|------------------------|
 





Calificar esta versión:
Aviso: Este fichero es trabajo propio de su transcriptor y representa su interpretación personal de la canción. El material contenido en esta página es para exclusivo uso privado, por lo que se prohibe su reproducción o retransmisión, así como su uso para fines comerciales.