Poison Girl, Him (tablatura)

Autor: Manuskiron | 20673 visualizaciones



pozz casi no e visto tabs d esta rola asi ke aqi les djo solo la
melodia ya q todavia no saco lo dmas.....


e|---------------------|
B|---------------------| X2
G|---------------------|
D|---------------------|
A|---4-2---------------|
E|-2-----5-4-2-0-0-2-0-|


e|---------------------------------------|
B|---------------------------------------|
G|---------------------------------------|
D|---------------------------------------|
A|-2-5-4-2-------------------------------|
E|---------5-2-0-0-2-0-5-5-2-0-0-0-0-5-5-|





Comentarios del colaborador: p0zz spero ke les guste aunqe sea la melodia ahi me califican y djan su comentario....

Calificar esta versión:
Aviso: Este fichero es trabajo propio de su transcriptor y representa su interpretación personal de la canción. El material contenido en esta página es para exclusivo uso privado, por lo que se prohibe su reproducción o retransmisión, así como su uso para fines comerciales.