Killing Loneliness, Him (tablatura)

Autor: arturo-rdz | 24785 visualizaciones



E|----------------------------------------| 
B|----------4---------3-------------------| 
G|-------------------------------3-5------| Intro 
D|-------5----------3---------------------| 
A|----3----------1------------6-----------| 
E|-------------------------4--------------| 


E|--------------------------------------------------------------
B|--------------------------------------------------------------
G|--------------------------------------------------------------
D|--------------------------------------------------------------
A|-10-10-10-10--13-13-13--8-8-8-8--5-5-5-6-6-6--5-6-6-6-5-6-5~--
E|--8--8--8--8--11-11-11--6-6-6-6--3-3-3-4-4-4--3-4-4-4-3-4-3~--


E|--------------------------------------------------------------
B|--------------------------------------------------------------
G|--------------------------------------------------------------
D|--------------------------------------------------------------
A|--10-10-10-10--13-13-13--8-8-8-8--5-5-5-6-6-6--5-6-6-6-5-6-8~-
E|---8--8--8--8--11-11-11--6-6-6-6--3-3-3-4-4-4--3-4-4-4-3-4-6~-
 
E|------------| 
B|------------| 
G|------------| 
D|--1-0-------| 
A|------------| 
E|------3~----| 


E|--------------------------------------------------------| 
B|--------------------------------------------------------| 
G|--------------------------------------------------------| 
D|--------------------------------------------------------| 
A|--10-10-10-10--10-10-10-10-10-10-10--10-10-10--5-5-5-5--| 
E|---8--8--8--8---8--8--8--8--8--8--8---8--8--8--3-3-3-3--| 



E|--------------------------------------------------------| 
B|--------------------------------------------------------| 
G|--------------------------------------------------------| 
D|--.-.-.-.-.-.-.--.-.-.--.-.-.-.--.-.-.-.-.-.-.--.-.-.---| 
A|--5-5-5-5-5-5-5--5-5-5--6-6-6-6--6-6-6-6-6-6-6--6-6-6---| 
E|--3-3-3-3-3-3-3--3-3-3--4-4-4-4--4-4-4-4-4-4-4--4-4-4---| 
 
E|--------------------------| 
B|--------------------------| 
G|--------------------------| 
D|--------------------------| 
A|----6---6---6---6----8-8--| 
E|--4---4---4---4---4--6-6--| 
 
E|----------------------------------------------------| 
B|----------------------------------------------------| 
G|----------------------------------------------------| 
D|----------------------------------------------------| 
A|--10-10-10-10-10-10-10-10--13-13-13-13-13-13-13-13--| 
E|---8--8--8--8--8?-8--8--8--11-11-11-11-11-11-11-11--| 
}x2 
E|-----------------------------------------------------| 
B|-----------------------------------------------------| 
G|-----------------------------------------------------| 
D|-----------------------------------------------------| 
A|--18-18-18-18-18-18-18-18-18-18-18-18-18-18-18-18----| 
E|--16-16-16-16-16-16-16-16-16-16-16-16-16-16-16-16----| 
 
E|-----------------------------------------------------| 
B|-----------------------------------------------------| 
G|-----------------------------------------------------| 
D|-----------------------------------------------------| 
A|--10---13---6-6---6-6---8----10---13-----------------| 
E|---8---11---4-4---4-4---6-----8---11?----------------| 
 
 
E|----------------------------------| 
B|----------------------------------| 
G|----------------------------------| 
D|-----.-.-.-.-.-.-.-.-.-.-.-.-.-.--| 
A|--6--6-6-6-6-6-6-6-6-6-6-6-6-6-6--| 
E|--4--4-4-4-4-4-4-4-4-4-4-4-4-4-4--|





Comentarios del colaborador: espero les sirva

Calificar esta versión:
Aviso: Este fichero es trabajo propio de su transcriptor y representa su interpretación personal de la canción. El material contenido en esta página es para exclusivo uso privado, por lo que se prohibe su reproducción o retransmisión, así como su uso para fines comerciales.