Funeral Of The Hearts, Him (acordes)

Autor: tavo_31_91 | 31105 visualizaciones

abmccsosmc-bcdimdeemfsosmg


Esta canción lleva un ritmo de balada, es solo de darle los matices para que suene como la toca Valo...

Intro: C/B 

E----0------------------|-------0---------|
A--------2--------------|-------2---------|
D-------------2------2--|-------2---------|
G-----------------0-----|-------0---------|
B-----------------------|-------1---------|
e-----------------------|-------0---------|



Em          D            G  
She was the sun shining upon  
    C            Em        D         Em    C/B  
the tomb of your hopes and dreams so frail,  
Em         D             G  
He was the moon painting you  
         C       Em     D       C   D  
with its glow so vulnerable and pale.  
 

 
  Em         Bm  
Love's the Funeral Of Hearts  
       C            G D  
and an ode for cruelty,  
      Em         Bm  
Where angels cry blood  
              C       G  D  
on flowers of evil in bloom,  
    Em         Bm  
The Funeral Of Hearts  
      C        G  D  
and a plea for mercy,  
     Em        Bm  
when love is a gun  
     C            G  D  
separating me from you


C/B
E----0------------------|-------0---------|
A--------2--------------|-------2---------|
D-------------2------2--|-------2---------|
G-----------------0-----|-------0---------|
B-----------------------|-------1---------|
e-----------------------|-------0---------|


Em          D             G  
She was the wind carrying in  
        C            Em               D              Em   C/B  
all the troubles and fears you've for years tried to forget,  
Em         D                 G  
He was the fire restless and wild  
    C   Em          D            C    D  
and you were like a moth to that flame.  
  
 

 Em         Bm  
Love's the Funeral Of Hearts     
   C            G D  
and an ode for cruelty,  
      Em         Bm  
Where angels cry blood  
              C       G  D  
on flowers of evil in bloom,  
    Em         Bm  
The Funeral Of Hearts  
      C        G  D  
and a plea for mercy,  
     Em        Bm  
when love is a gun  
     C            G  D  
separating me from you



C           D           Cdim  
The heretic seal beyond divine  
        Em       D        C  
Pray to God whos deaf and blind  
         D                   Cdim  
The last rights for souls on fire  
             Em          D        C   D    Em  
Three little words and a question ¿why?  



Em           Bm  
Love's the Funeral Of Hearts       
       D            A E  
and an ode for cruelty,
      F#m        C#m  
Where angels cry blood
                D     A E  
on flowers of evil in bloom,
     #m        C#m  
The Funeral Of Hearts
      D        A E  
and a plea for mercy,
     F#m        C#m  
when love is a gun
    D              A  E  
separating me from you.


Final: 
E---2----------------|-------2-------------|
A--------4-----------|-------4-------------|
D------------4-----4-|-------4-------------|
G----------------2---|-------2-------------|
B----------------- --|-------3-------------|
e--------------------|-------2-------------|


Cualquier comentario, sugerencia o correccion me lo pueden comunicar a mi correo... tavo_31_91@hotmail.com





Calificar esta versión:
Aviso: Este fichero es trabajo propio de su transcriptor y representa su interpretación personal de la canción. El material contenido en esta página es para exclusivo uso privado, por lo que se prohibe su reproducción o retransmisión, así como su uso para fines comerciales.