Bleed Well, Him (tablatura)

Autor: arturo-rdz | 40061 visualizaciones



INTRO


E---------------------------------------------------| 
B---------------------------------------------------| 
G---------------------------------------------------| 
D---------------------------------------------------| 
A-------------------10h12---------------------------| 
E---0-0----10h12------------------------------------| 



E------------------------------------------------------| 
B------------------------------------------------------| 
G------------------------------------------------------| 
D------------------------------------------------------| 
A--------------------10/9------------------------------| 
E---0-0------10h12--------------------------------------|





Calificar esta versión:
Aviso: Este fichero es trabajo propio de su transcriptor y representa su interpretación personal de la canción. El material contenido en esta página es para exclusivo uso privado, por lo que se prohibe su reproducción o retransmisión, así como su uso para fines comerciales.