Break Free, Hillsongs (tablatura)

Autor: brandon46 | 28316 visualizaciones



weno aka les dejo
el tab original de break free(IN A VALLEY BY THE SEA)
cualkier duda ya saven
Pd.:los signod de interrogacion indican
la direcccion de la pua.

                                 ¡  ¡ ! ¡
e--------------------------------X--X-X-X-------------|
B--------------------------------X--X-X-X-------------|
G--------------------------------X--X-X-X-------------|
D-----------------------4---4-6--X--X-X-X-----4-4-6---|x5
A-------------------5-5---5------X--X-X-X----5-5------|
E--2-2-2-2-2-2-2-2---------------X--X-X-X-------------|
                                           ¡ ! ¡ ! !
e------------------------------------------X-X-X-X-X---------
B----------------------2h3h2---------------X-X-X-X-X---------
G----------------------------2-------------X-X-X-X-X---------
D----------------------------------4---4-6-X-X-X-X-X---4--4-6
A------2-4-----2---4-----------5-5---5-----X-X-X-X-X--5--5---
E--2-2--2--2-2---2-------------------------X-X-X-X-X---------
                                                       ^
e----------|                                           |
B----------|                                           |
G----------| ESTO VA UNA VEZ AL FINAL DEL SEGUNDO TAB  |
D---4--6---|
A---5--5---|
E----------|


e---------------------------------------------
B---2-2-2-2-----------------------------------
G---2-2-2-2-------7-7-7s9-9-9s11-11-11---7-7-7
D---2-2-2-2-------7-7-7s9-9-9s11-11-11---7-7-7
A---0-0-O-O-------5-5-5s7-7-7s9--9---9---5-5-5
E---------------------------------------------

e---------------------------------------------
B---2-2-2-2-----------------------------------
G---2-2-2-2-------7-7-7s9-9-9s11-11-11---7-7-7
D---2-2-2-2-------7-7-7s9-9-9s11-11-11---7-7-7
A---0-0-O-O-------5-5-5s7-7-7s9--9---9---5-5-5
E---------------------------------------------

INSTRUMENTAL
e----------
B--10--10--
G--9----7--
D--7----7--
A----------
E----------


Verso 1:
Tu me creerías y me escuchas si te digo que
hay un amor de tal manera que nunca se ve

Pre-coro:
Somos libre, somos libre
Hay que danzar en su amor
Somos libre, somos libre
Hay que danzar en su amor,

Verso 2:
Nunca has pensado que a su hijo el dio por ti
Murió en la cruz para mostrar su prefecto amor

Pre-coro:
somos libre, somos libre
Hay que danzar en su amor
Somos libre, somos libre
Hay que danzar en su amor, su amor perfecto

Coro:
Solo hay una verdad
Ningún error hay en ti
Dios te da si pides,
Hay que danzar, hay que danzar siempre

Verso 3:
Ahora es tiempo de ver nuestra vidas ser libres
Levanto mi vida para darte honra y gloria a ti

Pre-coro:
Coro:
Solo hay una verdad
Ningún error hay en ti
Dios te da si pides,
Hay que danzar, hay que danzar siempre
Solo el es mi luz
Solo brillas en mi
Vamos todos
Hay que danzar, hay que danzar siempre

AL FINAL ALPLIKEN LA INTRO





Calificar esta versión:
Aviso: Este fichero es trabajo propio de su transcriptor y representa su interpretación personal de la canción. El material contenido en esta página es para exclusivo uso privado, por lo que se prohibe su reproducción o retransmisión, así como su uso para fines comerciales.