Quien Eres Tú, Hernan Pelegri (acordes)

Autor: nazho69 | 24975 visualizaciones

dofamlammimsol
INTRO

  Vete...
E||-----------0--------------|-----1--------||
B||--------1-----1-----3-----|--------3-----||
G||-----0-----------0-----0--|-----------0--||
D||--------------------------|--2-----------||
A||--3-----------------------|--------------||
E||--------------------------|--------------|| X4
  Solo marchate... 
E||-----------0--------1-----|-----0--------||
B||--------1-----1--------1--|--------1-----||
G||-----2-----------2--------|--2--------2--||
D||--------------------------|--------------||
A||--0-----------------------|--------------||
E||--------------------------|--------------||
 
  Ya no quiero escuchar tus mentiras, nunca mas
E||-----0-----------------1--|--------1--------1--------|
B||--------1-----------1-----|--1--------1--------1-----|
G||--2--------2-----1--------|-----1--------1--------1--|
D||--------------3-----------|--------------------------|
A||--------------------------|--------------------------|
E||--------------------------|--------------------------|
                    Fam     
       
-----------1--------1----||
--------1-----1-----1----||
-----1-----------1--1----||
--3-----------------3----||
--------------------3----||
--------------------1----||

SE REPITE LO MISMO




Do Lam Mírate, solo mírate Fam Sabes bien que tu cuerpo es la llave que abre puertas con cada detalle -RASGUEO Do Junto a ti, Mim He perdido mi alma Fam Y es tu corazón Sol El que no sabe amar -CORO Do Quien eres tú Lam Luz que brilla en la oscuridad Fam Triste reina que aun sueña con despertar Fam En otro lugar Do Lam Quien eres tú que ha ocupado nuestras vidas tú Fam Como piezas de algún juego que quieres ganar Fam Sin tener piedad -PUENTE Do Lam Quien eres tu ya no hay nada en tu alma Fam Sol Y tus ojos jamás, nos dirán la verdad -CORO Do Quien eres tú Lam Luz que brilla en la oscuridad Fam Triste reina que aun sueña con despertar Fam En otro lugar Do Lam Quien eres tú que ha ocupado nuestras vidas tú Fam Como piezas de algún juego que quieres ganar Fam Y sin tener piedad Do Quien eres tú
Calificar esta versión:
Aviso: Este fichero es trabajo propio de su transcriptor y representa su interpretación personal de la canción. El material contenido en esta página es para exclusivo uso privado, por lo que se prohibe su reproducción o retransmisión, así como su uso para fines comerciales.