Mi Padre Está En Lo Secreto, Hermana Glenda (acordes)

Autor: Anónimo | 36251 visualizaciones

dososmlamisisolsolsosm


MI PADRE ESTÁ EN LO SECRETO   
[Mt  6,6] 



e|--------0--------------0--------------0------------0------|
B|------0---0-----2----2---2----------0---0--------2---2----|
G|----1-------1------2-------2------1-------1----2-------2--|
D|----------------------------------------------------------|
A|-2--------------0--------------2-------------0------------|
E|----------------------------------------------------------|


e|--------0--------------0--------------0------------0------|
B|------0---0-----2----2---2----------0---0--------2---2----|
G|----1-------1------2-------2------1-------1----2-------2--|
D|----------------------------------------------------------|
A|-2--------------0--------------2-------------0------------|
E|----------------------------------------------------------|

                                                                        
Mi                    La     Mi        La            Mi  La       
Mi Padre está en lo secreto, mi Padre está en lo secreto.
Mi                    La     Mi         La       Mi  Si-7          
Mi Padre está en lo secreto, mi Padre está en lo secreto.
Do#m     Sol #-        La
Mi padre está en lo secreto.


e|--------0--------------0--------------0------------0------|
B|------0---0-----2----2---2----------0---0--------2---2----|
G|----1-------1------2-------2------1-------1----2-------2--|
D|----------------------------------------------------------|
A|-2--------------0--------------2-------------0------------|
E|----------------------------------------------------------|


Mi                    La     Mi        La            Mi  La       
Mi Padre está en lo secreto, mi Padre está en lo secreto.
Mi                    La     Mi         La       Mi  Si-7          
Mi Padre está en lo secreto, mi Padre está en lo secreto.
Do#m     Sol #-        La
Mi padre está en lo secreto.


e|--------0--------------0--------------0------------0------|
B|------0---0-----2----2---2----------0---0--------2---2----|
G|----1-------1------2-------2------1-------1----2-------2--|
D|----------------------------------------------------------|
A|-2--------------0--------------2-------------0------------|
E|----------------------------------------------------------|


Mi                    La     Mi        La            Mi  La       
Mi Padre está en lo secreto, mi Padre está en lo secreto.
Mi                    La     Mi         La       Mi  Si-7          
Mi Padre está en lo secreto, mi Padre está en lo secreto.
Do#m     Sol#m        La
Mi padre está en lo secreto.


e|--------0--------------0--------------0------------0------|
B|------0---0-----2----2---2----------0---0--------2---2----|
G|----1-------1------2-------2------1-------1----2-------2--|
D|----------------------------------------------------------|
A|-2--------------0--------------2-------------0------------|
E|----------------------------------------------------------|


Mi                    La     Mi        La        Mi  La
Mi Padre está en lo secreto, mi Padre ve en lo secreto
Mi                   La    Mi         La        Mi  Si-7
Mi padre ve en lo secreto, mi Padre conoce mis secretos 
Do#m       Sol#m      La
Mi padre conoce mis secretos.


Mi                   La      Mi        La           Mi        
Mi Padre está en lo secreto, mi Padre está en lo secreto... 


Liturgia

Se puede cantar en una liturgia penitencial, o en la Eucaristía intercalando 
el estribillo con la petición de perdón.

**No dudes nuestro Padre siempre esta ahi a nuestro lado y nunca nos va a abandonar**



atte: Christian    acorde_49@hotmail.com





Calificar esta versión:
Aviso: Este fichero es trabajo propio de su transcriptor y representa su interpretación personal de la canción. El material contenido en esta página es para exclusivo uso privado, por lo que se prohibe su reproducción o retransmisión, así como su uso para fines comerciales.