Las Aguas No Podrán Apagar, Hermana Glenda (tablatura)

Autor: Anónimo | 15506 visualizaciones



LAS AGUAS NO PODRAN APAGAR
(Cant  8,7) 


e|-3-----3-------------0--------------0----------------3------------0-----|   
B|-3---3---3----1----1---1----------1---1------------3---3----1---1---1---|
G|---0-------0-----0-------0------0-------0--------0-------0----0-------0-|
D|------------------------------------------------------------------------|    2 VECES
A|--------------3-------------2-3-------------2---------------3-----------|
E|-3--------------------------------------------3-------------------------|


SOL        DO         SOL      DO   SOL        DO          SOL
Las aguas no podrán apagar el amor. Las aguas no podrán apagar el amor
  DO        SOL  DO          SOL  SOL       DO            SOL      DO
Que yo te tengo, que yo te tengo. Ni tus pecados podrán apagar el amor
 SOL      DO            SOL            DO        SOL   RE          DO
Ni tus pecados podrán apagar el amor. Que yo te tengo, que yo te tengo
                      SOL    DO                   SOL
Las aguas no podrán apagar. Las aguas no podrán apagar 
 DO             SOL             LAm            RE
Las aguas no podrán apagar. El amor que yo te tengo.
MIm              SIm       DO             SOL
El amor que yo ten tengo. Nada lo podrá apagar.
    LAm                   DO              RE
El amor que yo te tengo. Nada lo podrá apagar. 


e|-3-----3-------------0--------------0----------------3------------0-----|   
B|-3---3---3----1----1---1----------1---1------------3---3----1---1---1---|
G|---0-------0-----0-------0------0-------0--------0-------0----0-------0-|
D|------------------------------------------------------------------------|    
A|--------------3-------------2-3-------------2---------------3-----------|
E|-3--------------------------------------------3-------------------------|

e|-3-----3-------------0--------------0----------------3------------0-----|   
B|-3---3---3----1----1---1----------1---1------------3---3----1---1---1---|
G|---0-------0-----0-------0------0-------0--------0-------0----0-------0-|
D|------------------------------------------------------------------------|    
A|--------------3-------------2-3-------------2---------------3-----------|
E|-3--------------------------------------------3-------------------------|


SOL        DO         SOL      DO   SOL        DO          SOL
Las aguas no podrán apagar el amor. Las aguas no podrán apagar el amor
  DO        SOL  DO          SOL  SOL       DO            SOL      DO
Que yo te tengo, que yo te tengo. Ni tus pecados podrán apagar el amor
 SOL      DO            SOL            DO        SOL   RE          DO
Ni tus pecados podrán apagar el amor. Que yo te tengo, que yo te tengo
                      SOL    DO                   SOL
Las aguas no podrán apagar. Las aguas no podrán apagar 
 DO             SOL             LAm            RE
Las aguas no podrán apagar. El amor que yo te tengo.
MIm              SIm       DO             SOL
El amor que yo ten tengo. Nada lo podrá apagar.
    LAm                   DO              RE
El amor que yo te tengo. Nada lo podrá apagar. 


Liturgia

Puede cantarse como canto final de Misa. Toda la asamblea puede hacer una gran 
cadena humana y moverse al ritmo de la canción. Es muy apta para el Domingo de 
Pascua y para todos los domingos del tiempo litúrgico.

**Jesus nunca te va a dejar de amar, porque eres lo que mas quiere por eso murio por ti**





Calificar esta versión:
Aviso: Este fichero es trabajo propio de su transcriptor y representa su interpretación personal de la canción. El material contenido en esta página es para exclusivo uso privado, por lo que se prohibe su reproducción o retransmisión, así como su uso para fines comerciales.