In The Middle Of The Heartbeat, Helloween (tablatura)

Autor: chat16 | 35745 visualizaciones

INTRO
Eb|----------------------------------------------|
Bb|-1h3---3---0h1---1--------1-------------------|
Gb|----2---2-----2---2---0h2--2-------0---0------|
Db|-----0---0-----0---0-----0--------2---0-------|
Ab|-----------------------------0-2-3---2--------|
Eb|----------------------------------------------|

Eb|-1p0-------1p0--------------------------------|
Bb|----3-3-------3-3-----------------------------|
Gb|-----2--2------2--2---------------------------|
Db|-0-------0---------0--------------------------|ending
Ab|----------------------------------------------|
Eb|----------------------------------------------|

BRIDGE:

eb|-------------------------0--------0-----------------0--|
hb|----1-0-1---1-0-1---1-0-1----1-0-1----1-0-1---1-0-1-0--|
gb|-------------------2--------2-----------------------0--|
db|---3-------3------2--------2---------3-------3------2--|
ab|--3-------3------0--------0---------3-------3-------2--|
Eb|-1-------1-------------------------1-------1--------0--|


REFRAIN ( distorted ):

eb|-------------------------------------------------------|
hb|-------------------------------------------------------|
gb|--7---2--3---7---3---5---------------------------------|
db|--7---2--3---7---3---5-------------7-------------------|
ab|--5---0--1---5---1---3-------------7------5-8-7-5-3----|
Eb|-------------------------1-3-5-7-8-5--5-8--------------|
                            . . . . .    . . . . . . .
eb|-------------------------------------------------------|
hb|-------------------------------------( acoustic again )|
gb|--7---2--3---7---3---5---------------------------------|
db|--7---2--3---7---3---5-------------7------0-2-3-2-0----|
ab|--5---0--1---5---1---3-------------7--0-3-----------3--|
Eb|-------------------------1-3-5-7-8-5-------------------|
                            . . . . .
SOLO1:

eb|-------------------------------------------------------|
hb|--13b15~~-13~~-12h13p12--------------------------------|
gb|-----------------------12-14~~---14p12-----------------|
db|--------------------------------------14--12/0---------|
ab|----------------------------------------15-------------|
Eb|-------------------------------------------------------|

Verse played with this...and played 2 more times!

BRIDGE

RERAIN

eb|-------------------------------------------------------|
hb|-------------------------------------------------------|
gb|--7---2--3---7---3---5---------------------------------|
db|--7---2--3---7---3---5-------------7-------------------|
ab|--5---0--1---5---1---3-------------7------5-8-7-5-3----|
Eb|-------------------------1-3-5-7-8-5--5-8--------------|
                            . . . . .    . . . . . . .

eb|-------------------------------------------------------|
hb|-------------------------------------------------------|
gb|--7---2--3---7---3---5---------------------------------|
db|--7---2--3---7---3---5-------------7-------------------|
ab|--5---0--1---5---1---3-------------7------5-8-7-5-3----|
Eb|-------------------------1-3-5-7-8-5--5-8--------------|
                            . . . . .    . . . . . . .
eb|-----------------|
hb|-----------------|
gb|-----------------|
db|-----------7-----|
ab|-----------7-----|
Eb|-1-3-5-7-8-5-----|
    . . . . .




SOLO2 ( acoustic )

eb|--1p0-----1--5p1----1--3p1----1----555-0---------------|
hb|--3--3---3-3-3--3--3-3-3--3--3-3---777-----------------|
gb|------2----------2---------2---------------------------|
db|--------0---------0---------0----2---------------------|
ab|---------------------------------0---------------------|
Eb|-------------------------------------------------------|


eb|--1p0-----1--5p1---5p1-1-3p1----1----8-8-8---3---------|
hb|--3--3---3-3-3--3--3--3-----3--3-3---101010--5---------|
gb|------2----------2-----------2-------------------------|
db|--------0---------------------0----2-------------------|
ab|-----------------------------------0-------------------|
Eb|-------------------------------------------------------|

eb|------6-----8--12-8h10p8-15-13-12-10-------------------|
hb|-----6-----8-------------------------13----------------|
gb|----7-----9--------------------------------------------|
db|---8----10---------------------------------------------|
ab|-------------------------------------------------------|
Eb|-------------------------------------------------------|

eb|---------10------12----151515-12-----------------------|
hb|-------10------12---13---------------------------------|
gb|-----11------13----------------------------------------|
db|---12------14------------------------------------------|
ab|-------------------------------------------------------|
Eb|-------------------------------------------------------|

eb|------6----8--12-8h10p8-15-13-12-17-----5--7~|
hb|-----6----8--------------------------3-----------------|
gb|----7----9------------------------2--------------------|
db|---8---10----------------------------------------------|
ab|---------------------------------------------------------|
Eb|---------------------------------------------------------|
Calificar esta versión:
Aviso: Este fichero es trabajo propio de su transcriptor y representa su interpretación personal de la canción. El material contenido en esta página es para exclusivo uso privado, por lo que se prohibe su reproducción o retransmisión, así como su uso para fines comerciales.