Hell Was Made In Heaven, Helloween (tablatura)

Autor: chat16 | 25353 visualizaciones

esta es mas qe todo la intro espero qe les sirva.
|-----------------------------------|
|-----------------------------------|
|-----------------------------------|
|------------------------7-^--------|
|-----------2------------5----------|
|--2/12-----0----000----------------|
                 P.M

|--------------------------------------|
|--------------------------------------|
|--------------------------------------|
|--------------------5---4-------------|
|--5^--5--5-5--------3---2-------------|
|--3---3--3-3--------------------------|
       
segunda guitarra

|--------------------------------------------------|
|--------------------------------------------------|
|--------------------------------------------------|
|----- 9^--7975-79^-797----------------------------|
|---------------------------------5^---------------|
|--------------------------------------------------|



Main Riff  (power chords)

|--------------------------------------------------------------|
|--------------------------------------------------------------|
|--------------------------------------------------------------|
|--------------------------------------------------------------|
|---7 777 5 7 777 555 333 222  7 777 5 7 777 5^ 3^-------------|
|--------------------------------------------------------------|

pongan sus comentarios
Calificar esta versión:
Aviso: Este fichero es trabajo propio de su transcriptor y representa su interpretación personal de la canción. El material contenido en esta página es para exclusivo uso privado, por lo que se prohibe su reproducción o retransmisión, así como su uso para fines comerciales.