Bestia, Hello Seahorse! (bajo)

Autor: Molotov | 22876 visualizaciones

ps aqui les dejo el tab del bajo nos vemos bye califikn...

Canción: Bestia
Álbum: Bestia
Artista: Hello Seahorse

Intro?
G-----------------------------------------
D-----------------------------------------
A---333333---------------666666-----------
E----------1111111-33333--------666666----X2

Soy transparente, me puedes oler muy bien?
G-----------------------------------------------
D-----------------------------------------------
A-3-3-3-3-3-3-3-3-------------------------------
E-----------------1-1-1-1-1-1-1-1-3-3-3-3-3-3-3-

Desde que me presento, No tengo que hablar para darme a entender
G----------------------------------------------------
D----------------------------------------------------
A-6-6-6-6-6-6-6-6------------------------------------
E------------------6-6-6-6-6-6-6-6-6-6-6-8-8-8-8-8-8-

Mis ojos te lo dicen todo, Mi boca arrulla lo que pienso
G-----------------------------------------------------
D-----------------------------------------------------
A----------------------------------------6-6-6-6-6-6--
E-8-8-8-8-8-8-8-8/1-1-1-1-1-1--3-3-3-3-3h-------------

Sabrás que es lo que siento,    Con sólo tocar mi piel.
G---------------------------------------------------------
D---------------------------------------------------------
A------------------------------------1-1-1-1-1-0-1-1-1-1--
E-6-6-6-6-6-6-6-6-5-6-6-6-6-6-6-6/(1)---------------------

No muerdo, ni acaricio,  Y sólo hiberno todo el tiempo,
G-----------------------------------------------
D-----------------------------------------------
A-3-3-3-3-3-3-3-3-3-----------------------------
E--------------------1-1-1-1-1-1-3-3-3-3-3-3-3--

En mi jaula de almohadas, En dónde nadie sabe la verdad.
G-------------------------------------------------------
D-------------------------------------------------------
A-6-6-6-6-6-6-6-6-6-6-6-6-h-----------------------------
E---------------------------6-6-6-6-6-6-6-6-6-6-6-6-6-6-

CORO:
No tengo voz para decirlo, Por eso hoy vengo y te lo escribo
G-----------------------------------------------------------
D-----------------------------------------------------------
A-3-3-3-3-3-3-3-3-3-----------------------------6-6-6-6-6-6-
E-------------------1-1-1-1-1-1-1-1-3-3-3-3-3-3-------------X2

He deshonrado a mis principios otra vez
G------------------------------------------------
D------------------------------------------------
A-6-6-6-6-6-6h-----------------------------------
E--------------6-6-6-6-6-6-6-6-6-6-6-6/8h6-6-6---



Puente:

G-------------------------------------------------------------
D-------------------------------------------------------------
A---3-------3------3------3-----3------3------3--------3------
E-------3-------3------3-----3-----3------3--------3--------3-

CORO:
No tengo voz para decirlo, Por eso hoy vengo y te lo escribo
G-----------------------------------------------------------
D-----------------------------------------------------------
A-3-3-3-3-3-3-3-3-3-----------------------------6-6-6-6-6-6-
E-------------------1-1-1-1-1-1-1-1-3-3-3-3-3-3-------------X2

He deshonrado a mis principios otra vez
G------------------------------------------------
D------------------------------------------------
A-6-6-6-6-6-6h-----------------------------------
E--------------6-6-6-6-6-6-6-6-6-6-6-6/8h6-6-6---

Puente2:

G----------------------------------8--------
D-----------------------5---------------8---
A---3----------6------------3---5-----------
E------1---3-------6------------------------

Nunca he tenido la furia de un león, Siempre tomando el camino corto,
G---------------------------------------------------------------------
D---------------------------------------------------------------------
A-3-3-3-3-3-3-3----------------------------6-6-6-6-6-6-6-6-6----------
E----------------1-1-1-1-1-1-1-1-3-3-3-3-3-------------------6-6-6-6-6
                                                           Me enseño
CORO:
No tengo voz para decirlo, Por eso hoy vengo y te lo escribo
G-----------------------------------------------------------
D-----------------------------------------------------------
A-3-3-3-3-3-3-3-3-3-----------------------------6-6-6-6-6-6-
E-------------------1-1-1-1-1-1-1-1-3-3-3-3-3-3-------------X2

He deshonrado a mis principios otra vez
G------------------------------------------------
D------------------------------------------------
A-6-6-6-6-6-6h-----------------------------------
E--------------6-6-6-6-6-6-6-6-6-6-6-6/8h6-6-6---

Como el me enseñoooooooo, me enseñooooo oooo me enseño
G---------------------------------------------------------------
D---------------------------------------------------------------
A-------------------3-3---------6-6-6-6-6-----------------------
E-6-6-6-6-6-6/8-8-8-----3-3-3-3-----------6-6-6-6-6-6/8-8-8-8/--


Puente del teclado?

Re?6 do6 sol5 Re?6 do6 sol5 do6 sol5 fa5 sol5 fa5 sol5 x2

Puente  2:

Re?6 re5 la?5 sol5 fa5 sol5 fa5 sol5 fa5 sol5 X4

Cm               Fm              Gm
Nunca he tenido la furia de un león
D#
Siempre tomando el camino corto,
A#m
Como él me enseñó

(El teclado ataca una sola vez en el acorde correspondiente)

Comentarios del colaborador: ps de mi oido je je

Calificar esta versión:
Aviso: Este fichero es trabajo propio de su transcriptor y representa su interpretación personal de la canción. El material contenido en esta página es para exclusivo uso privado, por lo que se prohibe su reproducción o retransmisión, así como su uso para fines comerciales.