Calle Luna, Calle Sol, Hector Lavoe (tablatura)

Autor: Anónimo | 16956 visualizaciones



Con ritmo!.. abre que voy!!!

(4 veces)
  Cm     G#    G
e|-8--------------|
B|---8---9-----8--|
G|-----8---8-7----|
D|----------------|
A|----------------|
E|----------------|

  Cm                   Fm
e|----------------------------------------|
B|-------------------9h8h9----------------|
G|-5.----------------------10h9h10--8h7h8-|
D|----5---6-------------------------------|
A|------6---6---5.------------------------|
E|------------3---------------------------|

e|------------------------------------------------|
B|-------4-4-------4-----------4-4--------4-------|
G|-----5---------5-----------5----------5---------|
D|-5-7-------5-7---------5-7--------5-7-----5-----|
A|--------------------------------------------3-3-|
E|------------------------------------------------|


(4 veces)
  Cm     G#    G
e|-8--------------|
B|---8---9-----8--|
G|-----8---8-7----|
D|----------------|
A|----------------|
E|----------------|


  Cm                   Fm
e|----------------------------------------|
B|-------------------9h8h9----------------|
G|-5.----------------------10h9h10--8h7h8-|
D|----5---6-------------------------------|
A|------6---6---5.------------------------|
E|------------3---------------------------|

                              G   G#
e|------------------------------------|
B|-------4-4-------4------------------|
G|-----5---------5--------------------|
D|-5-7-------5-7---------5-7--5-5-6..-|
A|------------------------------------|
E|------------------------------------|


       G#
Mete la mano en el bolsillo
       G          F#              Fm
saca y abre tu cuchillo y ten cuidao.
 D#                     D              C#           Cm
Pónganme oido: en este barrio a muchos guapos han matao.


      Fm    G      Cm
Calle Luna, calle Sol
      Fm    G      Cm
Calle Luna, calle Sol.


Cm      G            Bb        D#
Oiga señor si usted quiere su vida
    Cm       G       Bb       G# G
evitar es mejor o la tiene perdida.

       G#
Mete la mano en el bolsillo
       G          F#              Fm
saca y abre tu cuchillo y ten cuidao, oye ten cuidao.
 D#                     D              C#           Cm
Pónganme oido: en este barrio a muchos guapos han matao.
y qué mucho hah matao.


      Fm    G      Cm
Calle Luna, calle Sol, a dónde?
      Fm    G      Cm
Calle Luna, calle Sol.

Cm      G           Bb         D#
Mire señora agarre bien su cartera,
 Cm            G     Bb                    G# G
no conoce este barrio aquí asaltan a cualquiera.


       G#
Mete la mano en el bolsillo
       G          F#              Fm
saca y abre tu cuchillo y ten cuidao.
 D#                     D              C#           Cm
Pónganme oido: en este barrio a muchos guapos han matao.


      Fm    G      Cm
Calle Luna, calle Sol
      Fm    G      Cm
Calle Luna, calle Sol.


Cm                 G     Bb             D#
En los barrios de guapo no se vive tranquilo
 Cm             G    Bb                 G# G
mide bien tus palabras o no vales ni un kilo.


(Todo 4 veces)
  *Abre que voy! (en la 3 era vez)
   Cm      Fm  G            Cm   Fm    G
e|----------------------------------------|
B|----------------------------------------|
G|-5-5-5----------------------------------|
D|-5-5-5---3-6-5---3--6-5-3---5-3-5---5-5-|
A|-------6-------5----------6-------------|
E|----------------------------------------|


Cm - Bb - G# - G - Cm


Cm  Fm G       Cm  Fm G     Cm
Eeeeh    eeeh eeeeeeeeh eeeh eeh...
Fm  G              Cm
Camina pa'lante no mires para el 'lao
  Fm   G      Cm
oye camina no mires pa' 'lao.
Fm  G              Cm
Camina pa'lante no mires para el 'lao
Fm  G       Cm
tú tiene un santo pero no eres babalao.
Fm  G              Cm
Camina pa'lante no mires para el 'lao
Fm G       Cm
y ten cuidao y ten cuidao.
Fm  G              Cm
Camina pa'lante no mires para el 'lao
    Fm  G      Cm
cuidao saca tu coco pelao.
Fm  G              Cm
Camina pa'lante no mires para el 'lao
   Fm     G       Cm
camina pa'lante babalao.
Fm  G              Cm
Camina pa'lante no mires para el 'lao
  Fm       G             Cm
saca los bolsillos, tú estás arrancao.
Fm  G              Cm
Camina pa'lante no mires para el 'lao
Fm      G                   Cm
dile que fuiste a la pela y pelao te han dejao.
Fm  G              Cm
Camina pa'lante no mires para el 'lao.


Fm - G (x4)





                   --------
                º-| ¤    ¤ |-º
                º-|  LuïS  |-º
                º-| ¤    ¤ |-º
                          /
                    |    |
        ·===========================·
        | luis_6cuerdas@hotmail.com |
        |        Lima - Perú        |
        ·===========================·

*Si hubiese algún error o alguna duda, escribe al mail o avisa por MSN*





Calificar esta versión:
Aviso: Este fichero es trabajo propio de su transcriptor y representa su interpretación personal de la canción. El material contenido en esta página es para exclusivo uso privado, por lo que se prohibe su reproducción o retransmisión, así como su uso para fines comerciales.