Fue En Un Cafe, Heavy Nopal (acordes)

Autor: BREBAJE | 36849 visualizaciones

bbcff7


---------------------------------------------------/E
------3----3--------------------------------------- A 
--3----3----3-------------------------------------- D
---2----2----2------------------------------------- G
----1----1----1------------------------------------ B
---------------------------------------------------e
F
Cuando yo recuerdo

Que una vez
     C
La abandone

       Bb
Yo me pongo a pensar
      C
y no se que hacer
          F  F7
para olvidar

           Bb
Huo yo no se
             F
que voy a hacer

su ausencia me mata
   C              F
y yo no puedo volver

             Bb
Fue en un cafe

donde yo la deje
             F
Fue en un cafe

donde abandone
             Bb
fue en un cafe

donde la vi llorar
             F
fue en un cafe

y no quiso escuchar
              Bb  F
fue en un cafee..ee

F
Cuando yo recuerdo
             C
que una vez me engaño
      Bb
el dolor me hace ver
          C
que al dejarla
           F  F7
yo tuve razon

            Bb
Huou yo no se...[bis]

Su ausencia me mata...[bis]
             Bb
Fue en un cafe...[bis]


----------------------------------------------------------/E
---------------------------------------------------------- A 
---------------------------------------------------------- D
-5-5H7-----------7-----------7-7-------------------------- G
------6-8-----8-6-5-6-6-6-6-5----5H6P5----8-8--8-------8-- B
---------8-6-5-------------------------6P5-------5-6-5----e

----------------------------------------------------------/E
---------------------------------------------------------- A 
---------------------------------------------------------- D
--------------------7---5H7----------7-------------------- G
------8-------8-6-5---6----5-6-8-6-5---6------------------ B
5-6-5---5-6-5---------------------------------------------e

            Bb
Huou yo no se...[bis]

Su ausencia me mata...[bis]
             Bb
Fue en un cafe...[bis]





Calificar esta versión:
Aviso: Este fichero es trabajo propio de su transcriptor y representa su interpretación personal de la canción. El material contenido en esta página es para exclusivo uso privado, por lo que se prohibe su reproducción o retransmisión, así como su uso para fines comerciales.