Wicked Game, Heather Nova (tablatura)

Autor: rox_mcr | 29853 visualizaciones



Esta es una la version de Wicked game, hecha por Heather Nova, cuyo autor es Chris Isaak, 
pero solo la introduccion ya que no la encontrba en ninguun lado decidi sacarla...espero comentarios, 
y si cometi algun error hagan el favor de corregirmelo, trate de hacerla  sencilla para 
no marearme ni a uds tampoco, aunque en lo personal creo que suena bien con el original...ahi va:.

  
  1|-----------------------------------|
  2|-----------------------------------|
  3|----9--9------9--7-5-4-2-----------|
  4|--7------7--7-------------0-5-0-4--|
  5|-----------------------------------|
  6|-----------------------------------|


  1|----------------------------------------------|
  2|----------------------------------------------|
  3|--9------7-------5-4--------------------------|
  4|----10-7---10-7-----5-7-2-0-(0)-4-5-4--4-5-7--|
  5|----------------------------------------------|
  6|----------------------------------------------|



 Gracias, espero que les haya gustado!:.XD.:





Calificar esta versión:
Aviso: Este fichero es trabajo propio de su transcriptor y representa su interpretación personal de la canción. El material contenido en esta página es para exclusivo uso privado, por lo que se prohibe su reproducción o retransmisión, así como su uso para fines comerciales.