Vaso De Alcohol, Hazel (tablatura)

Autor: Anónimo | 40850 visualizaciones

LEYENDA DE LAS NOTAS:

/  - SLIDE
B   - BEND
H   - HAMMER-ON
P   - PULL-OFF
x   - NOTA APAGADA


   C
e-------------------------------------------------
B------------------------------8B-8B-8B-8B-8B-----
G-----------8-5----------8-5-8----------------8-5-
D---5-5-5/7------5-5-5/7--------------------------
A---3-3----------3-3------------------------------
E-------------------------------------------------

    C
e--------------------------------------------------------------------------
B------------------------------8B-8B-8B-8B-8B-------8B-8B-8B-8B-8B---------
G-----------8-5----------8-5-8----------------8-5-8----------------8-5-8-5-
D---5-5-5/7------5-5-5/7---------------------------------------------------
A---3-3----------3-3-------------------------------------------------------
E--------------------------------------------------------------------------



C                    G                         F                    C
UNDIDO EN VASO DEL ALCOHOL POR CULPA DE ESTE AMOR QUE ME ESTA MATANDO
C                    G              F                  C
UNDIDO EN ESTA CANTINA PIDIENDO ESQUINA PA' SEGUIR TOMANDO
C                   G                      F                   C
ACOMPAÑADO DE UN AMIGO QUE ES UN DESCONOCIDO QUE LE ESTOY PLATICANDO
       G          Am                     Fx
QUE SE FUEEEEEEEE  MEDEJO UNA CARTA DONDE DICE
               C                G   F                C
PERDONAME MI AMOR HUBIERA SIDO PEOR   DECIRTE LA VERDAD
                   G   Fx                   C
EN UN VASO DE ALCOHOL   SE ESCONDE LA MALDAD

REQUINTO
    C                        G
e------------------------------------------------------------
B------------------------------------------------------------
G------------------------------------------------------------
D---5-5-5-5-5-5-5-5--5/7-5-3-------------5H7-5-5H7-5-5H7P5---
A---3-3-3-3-3-3-3-3----------5-5-5-5-5-5-------------------7-
E------------------------------------------------------------
    F         G              C          G
e----------------------------------------
B----------------------------------------
G----------------------------------------
D-------------3-3-2--2-3-2-0-5-5-5-5-5---
A---3-3-3-3-3----------------3-3-3-3-3-5-
E--------------------------------------3-
    C                            G
e---8-8-8-8-8------------------------------3H5-3-3H5-3B-
B---8-8-8-8-8-10-8-8--8-10-8-6---3-3-3-3-3--------------
G-------------------------------------------------------
D-------------------------------------------------------
A-------------------------------------------------------
E-------------------------------------------------------
    F             G          C  G
e--------------------------------
B-------------6-6-5--5-6-5-3-1/8-
G---5-5-5-5-5--------------------
D--------------------------------
A--------------------------------
E--------------------------------

 C                    G
TEJURO NUNCA HABIA SENTIDO LO QUE ME HISO ESTE

F                               C
BANDIDO MI CORAZON SIGUE SANGRANDO
                    G                       F                     C
ABRAZADO A MI GUITARRA EL FRIO DE LA MADRUGADA Y LA GENTE CRITICANDO
                      G                    F                         C
MI AMIGO SIGUE MUY ATENTO UN SORBO A LA CHARANDA Y LA GUITARRA LLORANDO
       G          Am                         Fx
QUE SE FUEEEEEEEE  TIRADO EN LA CALLE Y GRITANDOOOO
               C                G   F                C
PERDONAME MI AMOR HUBIERA SIDO PEOR   DECIRTE LA VERDAD
                   G   Fx                   C
EN UN VASO DE ALCOHOL   SE ESCONDE LA MALDAD

REQUINTO
   C                        G
e------------------------------------------------------------
B------------------------------------------------------------
G------------------------------------------------------------
D---5-5-5-5-5-5-5-5--5/7-5-3-------------5H7-5-5H7-5-5H7P5---
A---3-3-3-3-3-3-3-3----------5-5-5-5-5-5-------------------7-
E------------------------------------------------------------
    F         G              C          G
e----------------------------------------
B----------------------------------------
G----------------------------------------
D-------------3-3-2--2-3-2-0-5-5-5-5-5---
A---3-3-3-3-3----------------3-3-3-3-3-5-
E--------------------------------------3-
    C                            G
e---8-8-8-8-8------------------------------3H5-3-3H5-3B-
B---8-8-8-8-8-10-8-8--8-10-8-6---3-3-3-3-3--------------
G-------------------------------------------------------
D-------------------------------------------------------
A-------------------------------------------------------
E-------------------------------------------------------
    F             G          C  G  C
e------------------------------------
B-------------6-6-5--5-6-5-3-1/8-----
G---5-5-5-5-5------------------------
D----------------------------------5-
A----------------------------------3-
E------------------------------------
Calificar esta versión:
Aviso: Este fichero es trabajo propio de su transcriptor y representa su interpretación personal de la canción. El material contenido en esta página es para exclusivo uso privado, por lo que se prohibe su reproducción o retransmisión, así como su uso para fines comerciales.