Detalles, Hazel (tablatura)

Autor: Anónimo | 40004 visualizaciones

bueno a qui les dejo otra de HAZEL muy buena rola
comienza hablada
B= Bend
/=slide


 C                              G
Mira como te explico lo que a pasado
                      C
Es que de el me enamorado
                                  G
Te fuiste te al gabacho y ni una carta
                            C
Y esta soledad me ha traicionado

        F
Y llego el con flores hermosas pequeños detalles
                              C
No se cuantas cosas creo que caí
          F
Que le diréeee  Que ha regresado Que todo ha terminado

Que todo esta olvidado
                C
No le puedo mentir
       G   F      C
Dime amooooor donde estabas
           G   F       C
Que voy haceeeeer también lo amo

Acompañamiento del requinto
F C F C G F C G F C

e-------------------------------------------------
B---8-10-12--13-13-13-13-12-10--13-13-13-13-12-10-
G-------------------------------------------------

e-------------------------------------------
B---13-13-13-13-12-13--15/17b--15-13-15b-13-
G-------------------------------------------

e-------------------------------------------------
B---8-10-12--13-13-13-13-12-10--13-13-13-13-12-10-
G-------------------------------------------------

e-------------------------------------------
B---13-13-13-13-12-13--15/17b--15-13-15b-13-
G-------------------------------------------

e----------------------------------------------
B---15b-15b-15b--13-12-10-13-12-10-13-12-10-13-
G----------------------------------------------

e-----------------------------------------------
B---10-8-6-10-8-6-10-8-6-10---6-8-10-8-10-10b-8-
G-----------------------------------------------

e----------------------------------------------
B---15b-15b-15b--13-12-10-13-12-10-13-12-10-13-
G----------------------------------------------

e-----------------------------------------------
B---10-8-6-10-8-6-10-8-6-10---6-8-10-8-10-10b-8-
G-----------------------------------------------

C                                 G
Fueron  cinco años espero me entienda
                                  C
Noches de tristeza tal vez comprenda
                                 G
Toda la tristeza invadía su corazón
                                       C
Después de estar tan sola ahora tenia dos
                             G
Los dos rivales solo se miraron
                                  C
Unas palabras y los dos se marcharon


        F
Y llego el con flores hermosas pequeños detalles
                              C
No se cuantas cosas creo que caí
          F
Que le diréeee

Que ha regresado

Que todo ha terminado

Que se olvide de todo
                C
No le puedo mentir
       G   F      C
Dime amooooor donde estabas
           G   F       C
Que voy haceeeeer también lo amo

       G   F      C
Dime amooooor donde estabas
           G   F       C
Que voy haceeeeer también lo amo

Acompañamiento del requinto
F C F C G F C G F C


e-------------------------------------------------
B---8-10-12--13-13-13-13-12-10--13-13-13-13-12-10-
G-------------------------------------------------

e-------------------------------------------
B---13-13-13-13-12-13--15/17b--15-13-15b-13-
G-------------------------------------------

e-------------------------------------------------
B---8-10-12--13-13-13-13-12-10--13-13-13-13-12-10-
G-------------------------------------------------

e-------------------------------------------
B---13-13-13-13-12-13--15/17b--15-13-15b-13-
G-------------------------------------------

e----------------------------------------------
B---15b-15b-15b--13-12-10-13-12-10-13-12-10-13-
G----------------------------------------------

e-----------------------------------------------
B---10-8-6-10-8-6-10-8-6-10---6-8-10-8-10-10b-8-
G-----------------------------------------------

e----------------------------------------------
B---15b-15b-15b--13-12-10-13-12-10-13-12-10-13-
G----------------------------------------------

e-----------------------------------------------
B---10-8-6-10-8-6-10-8-6-10---6-8-10-8-10-10b-8-
G-----------------------------------------------


camaras solo agarren los tiempos y listo
Calificar esta versión:
Aviso: Este fichero es trabajo propio de su transcriptor y representa su interpretación personal de la canción. El material contenido en esta página es para exclusivo uso privado, por lo que se prohibe su reproducción o retransmisión, así como su uso para fines comerciales.