I Got Nerve, Hannah Montana/miley Cyrus (tablatura)

Autor: militha08 | 32901 visualizaciones

Intro:

   Eb5		  G5 Ab5
E|--------------------|
B|--------------------|
G|-3-3--3-3--3-3------|
D|-3-3--3-3--3-3--3---|
A|-1-1--1-1--1-1--3-4-|
E|----------------1-2-|

   Eb5	    Bb5 G5	  Ab5
E|-------------------------------------------|
B|-------------------------------------------|
G|-3-3--3-3----------------------------------|
D|-3-3--3-3--3-3--3-3--3-3--3-3--------------|
A|-1-1--1-1--1-1--1-1--3-3--3-3--4-4--4-4--4-|
E|---------------------1-1--1-1--2-2--2-2--2-|
 We haven't met, and that's okay, cause you will be asking for me one day. Don't wanna wait 
in line cause the moment is mine believe me.

   Ab(add2)         Fm7		     Cm				   
E|-2-2-2-2-2-2-2-2-1-1-1-1-1-1-1-1-1-1-1-1-1-1-1-1-1-1-1-1-1-1-1-1-|
B|-1-1-1-1-1-1-1-1-1-1-1-1-1-1-1-1-2-2-2-2-2-2-2-2-2-2-2-2-2-2-2-2-|
G|-2-2-2-2-2-2-2-2-1-1-1-1-1-1-1-1-3-3-3-3-3-3-3-3-3-3-3-3-3-3-3-3-|
D|-3-3-3-3-3-3-3-3-1-1-1-1-1-1-1-1-3-3-3-3-3-3-3-3-3-3-3-3-3-3-3-3-|
A|-----------------3-3-3-3-3-3-3-3-1-1-1-1-1-1-1-1-1-1-1-1-1-1-1-1-|
E|-----------------1-1-1-1-1-1-1-1---------------------------------|

  Ab5              Bb5
E|---------------------------------|
B|---------------------------------|
G|---------------------------------|
D|---------------------------------|
A|4-4-4-4-4-4-4-4--1-1-1-1-1-1-1-1-|
E|2-2-2-2-2-2-2-2--3-3-3-3-3-3-3-3-|
  Don't close your eyes, cause it's a chance worth taking, And I think that I can shake you.
Don't close your mind. The Words I use are open. And I think that I can show you.

Chorus:
E|-------------------------------------------------------|
B|---1-1-----1-------------------------------------------|
G|-----------------------------2-2-----2-0---0-0-----0---|
D|-------------3-----------------------------------------|
A|-3-----3-3-------3-3-----3-0-----0-0-----3-----0-0---3-|
E|---------------1-----1-1-------------------------------|
I know where I stand, I know who I am, I would never run away when life gets bad. It's
  I know what you like I know what you think, Not afraid to stare you down until you blink. 

E|-------------------------------------------------------------|
B|--1-1-----1------------------------------------------------1-|
G|------------------------------2-2-----2-0---0-0-----0--0-0---|
D|-----------3-------------------------------------------------|
A|-3----3-3--------3-3------3-0--------------------------3-3---|
E|-------------1--------1-1---------1-1-----1-----1-1----------|
(I know I can) change the world, yeah yeah yeah. 

  Eb5  G5 Ab5
E|----------|
B|----------|
G|-3-3--3---|
D|-3-3--3---|
A|-1-1--1-4-|
E|--------2-|

Palm Mute section.
E|-----------------------------------------------------------------------|
B|-------------------------1-1-----1-------------------------------------|
G|---2-----0---0-0-----0-----------------------------2-2-----2-0---0-----|
D|-----------------------------------3---3-3-----3-----------------------|
A|-0---0-0---------------3-----3-3-----------------0-----0-0---------3---|
E|-----------1-----1-1-----------------1-----1-1-----------------0-------|

E|------------------------------------|
B|-1-1-----1--------------------------|
G|--------------------------2-----2-0-|
D|------3-3----3-3-----3--------------|
A|-----------------------0----0-0-----|
E|-----------1----1-1-----------------|
  Electrified, I'm on a wire getting together and we're on fire. 

E|----------------------------------------------------------|
B|----------------------------------------------------------|
G|--0-0-----0-------0--0-----0-0------0-----0-----0-0---3-3-|
D|------------2-2-------2-2------0-0---0-0---3-3------3-----|
A|-------------------------------------------1-1------1-----|
E|-3-----3-3----0-0-------0-0-------3-3--3-3----------------|
    What I said, you heard: Now I've
E|---------------------|
B|---------------------|
G|-----------------0---|
D|-----3-3-----3-3---3-|
A|---------------------|
E|-1-1-----1-1---------|
   got you spinning.

Bridge:
E|---------------------------------------------------------|
B|---------------------------------------------------------|
G|-----2--2-----2--2-----0--0-----0--0-----2--2------------|
D|-2-2------2-2------0-0------0-0------3-3------3-3--2-1-2-|
A|-0-0------0-0------------------------1-1------1-1--------|
E|-------------------3-3------3-3--------------------------|
You, you need to discover who can make you feel free. And I,

E|---------------------------------------------------------|
B|---------------------------------------------------------|
G|-----2--2-----2--2-----0--0-----0--0-----2--2------------|
D|-2-2------2-2------0-0------0-0------3-3------3-3--2-1-2-|
A|-0-0------0-0------------------------1-1------1-1--------|
E|-------------------3-3------3-3--------------------------|
 I need to uncover, the part of you that's reaching out for me, Hey....

E|------------------------------1--5--3----|
B|---------------------------------0--3----|
G|---------------------------0--0--2--0--0-|
D|---3-3-----3---3--------3--3--3----------|
A|-----------------------------------------|
E|-1-----1-1---1---1--1-1------------------|
  I know where I stand, I know who I am, I would never run away when 
life gets bad.


   Eb5		  G5 Ab5
E|-----------------------------|
B|-----------------------------|
G|-3-3-----3-3-----3-3-----3-3-|
D|-3-3-3---3-3-3---3-3-3---3-3-|
A|-1-1-3-4-1-1-3-4-1-1-3-4-1-1-|
E|-----1-2-----1-2-----1-2-----|
Calificar esta versión:
Aviso: Este fichero es trabajo propio de su transcriptor y representa su interpretación personal de la canción. El material contenido en esta página es para exclusivo uso privado, por lo que se prohibe su reproducción o retransmisión, así como su uso para fines comerciales.