Fly On The Wall, Hannah Montana/miley Cyrus (tablatura)

Autor: anarki4455 | 45875 visualizaciones

Intro/Estribillo:
G Bb Eb D
|-----------------------------------------------
|-----------------------------------------------
|-----------------------------------------------
|--------------8--7-----------------------------
|----5----8----6--5-----------------------------
|----3----6-------------------------------------

Verse:

|-----------------------------------------------
|-----------------------------------------------
|-----------------------------------------------
|-----------------------------------------------
|--5---5---3--3---------------------------------
|--3---2---1--0---------------------------------




Pre: |----------------------------------------------- |----------------------------------------------- |----------------------------------------------- |--8-------------------------------------------- |--6---5--8---(2x)------------------------------ |------3--6------------------------------------- Bridge: |----------------------------------------------- |----------------------------------------------- |----------------------------------------------- |----------------------------------------------- |---10\8/10---5\3/5----------------------------- |---8-\6/8----3\1/3-----------------------------
Calificar esta versión:
Aviso: Este fichero es trabajo propio de su transcriptor y representa su interpretación personal de la canción. El material contenido en esta página es para exclusivo uso privado, por lo que se prohibe su reproducción o retransmisión, así como su uso para fines comerciales.