Best Of Both Worlds, Hannah Montana/miley Cyrus (tablatura)

Autor: guillermiux | 41192 visualizaciones

intro/verse:

E----------------|
B----------------|
G--8-10-8-6-8-6--|
D--8-10-8-6-8-6--|  x2
A--6-8--6-4-6-4--|
E----------------|

then do this on the the third time


E--------------------|
B--------------------|
G--8-10-8-6-8-6-4-6--|
D--8-10-8-6-8-6-4-6--|
A--6-8--6-4-6-4-2-4--|
E--------------------|


chorus:

E-----------------------|
B-----------------------|
G--8888-3333-5555-3333--|
D--8888-3333-5555-3333--|
A--6666-1111-3333-1111--|
E-----------------------|

(chords:688-133)      (chords:355-133)

(688)   (133)         (355)                              (133)
Best of both world    Chillin' out take it slow then you rock out the show


E------------|
B------------|
G--1111-333--|
D--1111-333--|
A--0000-133--|
E------------|

(chords:011-133)

(011)                     (133)
Mix it altogether and you know you got the best of both worlds

verse

and just repeat that entire part as the song is suppose to be
then i still haven't figured out the rest of this part, but heres the rest i figured out...


this is the part after she says "the best part is that you get to be whoever you wanna be"...


E--------|
B--------|
G--66-66-|
D--66-66-|
A--44-44-|
E--------|

         YEAH THE BEST OF BOTH...

E-------------------|
B-------------------|
G--66-66-66-6-8-10--|
D--66-66-66-6-8-10--|
A--44-44-44-4-6-8---|
E-------------------|
           YOU GOT THE BEST OF BOTH...


E-----------------|
B-----------------|
G--66-66---666666-|
D--66-66---666666-|
A--44-44---444444-|
E-----------------|

           YOU GOT THE BEST BOTH...


Then i dont know the next but anyways here's the ending chorus


E--------------------------|
B--------------------------|
G--10101010-5555-7777-5555-|
D--10101010-5555-7777-5555-|
A--8-8-8-8--3333-5555-3333-|
E--------------------------|

(chords:81010 - 355)   (chords:577 - 355)

(81010) (355)          (577)                              (355)
Best of both worlds... chillin' out take it slow then you rock out the show

    vibrato                                  slide hand up to the first fret
                                             then play the next note (13)

E--8~---------------------------------------------------------------------|
B-------------------------------------------------------------------------|
G-------------------------------------------------------------------------|
D-------------------------------------------------------------------------|
A-------------------------------------------------------------------------|
E-------------------------------------------------------------------------|

Best of both worlds... without the shake in the hair you can go anywhere


E--13~--------------------------------------------------------------------|
B-------------------------8-----------------------------------------------|
G-------------------------------------------------------------------------|
D-------------------------------------------------------------------------|
A-------------------------------------------------------------------------|
E-------------------------------------------------------------------------|

Best of both girls...  mix it altogether oh yeah it so much better when you

E--1818181818--|
B--1818181818--|
G--------------|
D--------------|
A--------------|
E--------------|

KNOW YOU GOT THE BEST OF BOTH WORLDS.

Calificar esta versión:
Aviso: Este fichero es trabajo propio de su transcriptor y representa su interpretación personal de la canción. El material contenido en esta página es para exclusivo uso privado, por lo que se prohibe su reproducción o retransmisión, así como su uso para fines comerciales.