Last Man Standing, Hammerfall (tablatura)

Autor: Alanenhd | 45950 visualizaciones

Guitar 1 & Guitar 2
e|---------------------------------------------------------------------------|
B|---------------------------------------------------------------------------|
G|---------------------------------------------------------------------------|
D|---7---5-7---8-5---7-7-5-5-------------7---5-7---8-5---8-8-7-7-8-----------|
A|---7---5-7---8-5---7-7-5-5-------------7---5-7---8-5---8-8-7-7-8-----------|
E|---5---3-5---6-3---5-5-3-3-------------5---3-5---6-3---6-6-5-5-6-----------|

Guitar 1 (Interlude)
e|---1---0---1---0---1---0-------------1-------------------------------------|
B|---3---0---3---1---1---1-----------3---3----3------------------------------|
G|---2---2---2---0---2---2---------2-----------------------------------------|
D|---0---2---0---2---3---2-------0-------------------------------------------|
A|---0---0---0---0---0---0-----0-----------0---------------------------------|
E|---------------------------------------------------------------------------| x2

Guitar 2 (They use a synth in this part while Guitar 1 does it's stuff, but if your
live, have a second guitarist do this so they don't stand around uselessly)
e|---------------------------------------------------------------------------|
B|---------------------------------------------------------------------------|
G|-----------------------------------(play every chord 8 times)--------------|
D|---8---7---8---5---8---7---5-----------------------------------------------|
A|---8---7---8---5---8---7---5-----------------------------------------------|
E|---6---5---6---3---6---5---3-----------------------=-----------------------| x2
******************************


Guitar 1 & Guitar 2
e|---------------------------------------------------------------------------|
B|---------------------------------------------------------------------------|
G|---------------------------------------------------------------------------|
D|---7---5-7---8-5---7-7-5-5-------------7---5-7---8-5---8-8-7-7-8-----------|
A|---7---5-7---8-5---7-7-5-5-------------7---5-7---8-5---8-8-7-7-8-----------|
E|---5---3-5---6-3---5-5-3-3-------------5---3-5---6-3---6-6-5-5-6-----------|

Guitar 1 (Interlude)
e|---1---0---1---0---1---0-------------1-------------------------------------|
B|---3---0---3---1---1---1-----------3---3----3------------------------------|
G|---2---2---2---0---2---2---------2-----------------------------------------|
D|---0---2---0---2---3---2-------0-------------------------------------------|
A|---0---0---0---0---0---0-----0-----------0---------------------------------|
E|---------------------------------------------------------------------------| x2

Guitar 2
e|---------------------------------------------------------------------------|
B|---------------------------------------------------------------------------|
G|-----------------------------------(play every chord 8 times)--------------|
D|---8---7---8---5---8---7---5-----------------------------------------------|
A|---8---7---8---5---8---7---5-----------------------------------------------|
E|---6---5---6---3---6---5---3-----------------------=-----------------------| x2
******************************


Guitar 1 & Guitar 2
e|---------------------------------------------------------------------------|
B|---------------------------------------------------------------------------|
G|---------------------------------------------------------------------------|
D|---7---5-7---8-5---7-7-5-5-------------7---5-7---8-5---8-8-7-7-8-----------|
A|---7---5-7---8-5---7-7-5-5-------------7---5-7---8-5---8-8-7-7-8-----------|
E|---5---3-5---6-3---5-5-3-3-------------5---3-5---6-3---6-6-5-5-6-----------|

Solo (only part I can get so far)
e|---------------------------------------------------------------------------|
B|-13-13-13-12-13-12h13p12-10\----7/10--9/12--11/14--12/15-(15)--17-15-13-12\|
G|---------------------------------------------------------------------------|
D|---------------------------------------------------------------------------|
A|---------------------------------------------------------------------------|
E|---------------------------------------------------------------------------|
Calificar esta versión:
Aviso: Este fichero es trabajo propio de su transcriptor y representa su interpretación personal de la canción. El material contenido en esta página es para exclusivo uso privado, por lo que se prohibe su reproducción o retransmisión, así como su uso para fines comerciales.