Lo Que Yo Se De Ti, Ha Hash (tablatura)

Autor: dko92 | 28799 visualizaciones



ESTA KANCION ESTA MUY BONITA PERO ESTA ALGO CANSADA SI LES GUSTO PORFAVOR DEJEN UN COMENTARIO PLISS..


E|--------1-6------------------1-6---------------1-6--------------
B|--------------9-7-9-7------------9-7-9-7------------9-7-9-7-----
G|---2-3-------------------2-3----------------2-3-----------------
D|----------------------------------------------------------------
A|-1---------------------1------------------1---------------------
E|----------------------------------------------------------------

E|---------1-6-----6-7---
B|--------------9--------
G|-----2-3---------------
D|-----------------------
A|--1--------------------
E|-----------------------

A#                    Gm
Puedo ver en tu mirada tantas huellas de dolor
            F                D#
que alguien antes de mi te dejó
A#                      Gm
aun es mucha la distancia nos separa tu temor
        F                D#
abre un poco de ti por favor

Cm              A#        Gm          F
no encuentro caricia para hacerte sentir
Cm                    A#         F
que aquí en mis brazos puedes vivir

Coro:

      A#       Gm            D#
si pudieras saber, lo que yo se de ti
                 D#m           F
sabrías que tu estas mejor aquí
      A#        Gm             D#
si pudieras sentir, lo que siento por ti
     D#m                       A#
sufrirías por que yo no soy feliz

(intro)

E|---------1-6--------------
B|--------------9-7-9-7-----
G|-----2-3------------------
D|--------------------------
A|--1-----------------------
E|--------------------------

E|---------1-6-----6-7---
B|--------------9--------
G|-----2-3---------------
D|-----------------------
A|--1--------------------
E|-----------------------



A#                        Gm
tal vez deba darte tiempo, esperar ese momento
         F                     D#
en que al fin nos coincida el amor

Cm              A#        Gm          F
no encuentro caricia para hacerte sentir
Cm                      A#       F
que aquí en mis brazos puedes vivir

Coro:

      A#       Gm            D#
si pudieras saber, lo que yo se de ti
                 D#m           F
sabrías que tu estas mejor aquí
      A#        Gm             D#
si pudieras sentir, lo que siento por ti
     D#m                        F
sufrirías por que yo no soy feliz

F#               C#5             G#        A#
aunque intentes ocultarlo, no lo sabes fingir
B               F#         C#
tus besos no me pueden mentir

(coro)

      C#      A#m            F#
si pudieras saber, lo que yo se de ti
                F#m          G#
sabrías que tu estas mejor aquí
      C#        A#m             F#
si pudieras sentir, lo que siento por ti
     F#m                        C# - A#m – F#
sufrirías por que yo no soy feliz.......Sin ti
     G#     C# - A#m – F# - G# - C#
oohh no no





Calificar esta versión:
Aviso: Este fichero es trabajo propio de su transcriptor y representa su interpretación personal de la canción. El material contenido en esta página es para exclusivo uso privado, por lo que se prohibe su reproducción o retransmisión, así como su uso para fines comerciales.