Opening, Gustavo Santaolalla (tablatura)

Autor: BonJunny23 | 27830 visualizaciones



Opening by Gustavo Santaolalla:

1era Parte:

e-------5/4------------5/4-------------5/4--------
b----------5-----0--------------------------------
g-------4/6---------------------------------------
D-------------------------------------------------
A-------0-----------------------------------------
E-------------------------------------------------

* La cuerda A y la G se tocan al mismo tiempo *

e-------------------------------------------------
b-------------------------------------------------
g----------4--------------------------------------
D-------------------------------------------------
A-------0-----------------------------------------
E-------------------------------------------------

2da Parte:

e-------5/4------------5/4-------------5/4--------
b----------5-----0--------------------------------
g-------4/6---------------------------------------
D-------------------------------------------------
A-------0-----------------------------------------
E-------------------------------------------------

e-------------------------------------------------
b-------------------------------------------------
g-----------4------------------6------------------
D-------------------------------------------------
A-------0------------------5----------------------
E-------------------------------------------------

 G cn el dedo 3 en la 4ta cuerda 3er traste
 E (En ambas se tocan todas la cuerdas)

e-------------------------------------------------
b-------------------------------------------------
g--------------6----------------4-----------------
D-------------------------------------------------
A-------5-----------------------------------------
E--------------------------3----------------------

 G cn el dedo 3 en la 4ta cuerda 3er traste
 E (En ambas se tocan todas la cuerdas)

e------------------------------------13-----------* Nota Abajoo
b------------------------------------13-----------
g-------------------------------------------------
D-------------------------------------------------
A-------------------------------------------8-----
E-------------------------------------------------

*Em esta parte de pone el dedo encima de las cuerdas sin hacer presion y el arpegio es: 2da, 1era, 2da y al final la 5ta...

Y asi terminaa... porfaaaa sean compasivoss es la primeraaa cancion q suboo... si tienen dudas vean el sig video:
http://www.youtube.com/watch?v=FItkKExEJ8E
o envienmee un correooo...

                                             Salma Avila :)





Calificar esta versión:
Aviso: Este fichero es trabajo propio de su transcriptor y representa su interpretación personal de la canción. El material contenido en esta página es para exclusivo uso privado, por lo que se prohibe su reproducción o retransmisión, así como su uso para fines comerciales.