Uno Entre 1000, Gustavo Cerati (bajo)

Autor: livan | 45423 visualizaciones

Verso

G |--------------------||--------------------|
D |--------------------||--------------------|
A |-----7-5------------||-----7-5------------|
E |-0-0-----7-0--3-3-3-||-0-0-----7-0--3-3-5-|


  
  "Mientras tanto..."

G |-----------------||-----------------|
D |-----------------||-----------------|
A |-3-3-3-3-3-3-3-3-||-5-5-5-5-5-2-2-5-|
E |-----------------||-----------------|


  "Yo me encargo..."

G |-----------------||-----------------|
D |-----------------||-----------------|
A |-3-3-3-3-3-3-3-3-||-2-2-2-2~--------|
E |-----------------||-----------------|


  Verso

G |--------------------||--------------------|
D |--------------------||--------------------|
A |-----7-5------------||-----7-5------------|
E |-0-0-----7-0--3-3-3-||-0-0-----7-0--3-3-5-|


  Interludo

G |----------------|
D |----------------|
A |----------------| X4
E |-2-2-2-2-5-5-5~-|


  Verso:

G |--------------------||--------------------|
D |--------------------||--------------------|
A |-----7-5------------||-----7-5------------|
E |-0-0-----7-0--3-3-3-||-0-0-----7-0--3-3-5-|


  Previo al Estribillo hace:

G |---------|
D |-5-4-2---|
A |-------4-| X2
E |---------|


  Estribillo:

G |--------------------||--------------------|
D |--------------------||--------------------|
A |-----------5-5-5-7~-||-----7-5------------|
E |-7-7-5-5-5----------||-0-0-----7-0--3-3-5-|


  "Y que por fin seamos uno..."

G |----------|
D |----------|
A |-5-4-5-7~-| X3
E |----------|

  
  Y al final del 1er estribillo hace:


G |-(11)-(11)-9-9-7-7-6-6-4-4~-|
D |----------------------------|
A |----------------------------|
E |----------------------------|


  Interludo

G |----------------|
D |----------------|
A |----------------| X4
E |-2-2-2-2-5-5-5~-|


  Repite el Estribillo y termina con:


 "Mientras tanto..."

G |-----------------||-----------------|
D |-----------------||-----------------|
A |-3-3-3-3-3-3-3-3-||-5-5-5-5-5-9-9-9-|
E |-----------------||-----------------|


G |-----------------||-----------------|
D |-----------------||-----------------|
A |-3-3-3-3-3-3-3-3-||-2-2-2-2·-----0~-|
E |-----------------||-----------------|

Comentarios del colaborador: Bueno eso es todo... Espero les guste y les sirva. Saludos! =]

Calificar esta versión:
Aviso: Este fichero es trabajo propio de su transcriptor y representa su interpretación personal de la canción. El material contenido en esta página es para exclusivo uso privado, por lo que se prohibe su reproducción o retransmisión, así como su uso para fines comerciales.