El Mareo, Gustavo Cerati (acordes)

Autor: kurtcerati | 17375 visualizaciones

aambmemfsosmg
Hay les va un muy Buen tema! Si tienen arreglos para la cancion ponganlos! :D


Intro:

       Bm              F#m
e--------------------------------------
B--------------------------------------
G--------------------------------------  [x4]
D---------------4---------------0h2----
A----0h2--2-2--------------------------
E--------------------0h2--2-2----------

Verso:

Bm                F#m
Avanzo y escribo, decido el camino

G                                Em     A 
Las ganas que quedan se marchan con vos

Bm                 F#m
Se apaga el deseo, ya no me entrenvero

G                            Em   A 
Y hablar eso que se me iba mejor


Coro:

Bm                     F#m
Con los ojos no te veo, se que se me viene el mareo

G                                 Em        A 
y es entonces cuando quiero salir a caminar


Bm                     F#m
Con los ojos no te veo, se que seme viene el mareo

G                                 Em         A 
y es entonces cuando quiero salir a caminar


Verso:

Bm               F#m
El agua me ciega, hay vidrio en la arena

G                          Em     A 
Ya no me da pena dejar un adios


Asi son las cosas, amargas borrosas
Son fotos veladas de un tiempo mejor


Coro:

Con los ojos no te veo, se que se me viene el mareo
y es entonces cuando quiero salir a caminar

Con los ojos no te veo, se que seme viene el mareo
y es entonces cuando quiero salir a caminar


Bm Am G Em A F#m*  [x2]


Verso con intro como acompañante:

       Bm              F#m
e--------------------------------------
B--------------------------------------
G--------------------------------------
D---------------4---------------0h2----
A----0h2--2-2--------------------------
E--------------------0h2--2-2----------

El aire me ciega, hay vidrio en la arena
Ya no me da pena dejarte un adios

Asi son las cosas, amargas borrosas
Son fotos veladas de un tiempo mejor


         [coro]


Bm F#m G Em  A   [x2]

Bm
Calificar esta versión:
Aviso: Este fichero es trabajo propio de su transcriptor y representa su interpretación personal de la canción. El material contenido en esta página es para exclusivo uso privado, por lo que se prohibe su reproducción o retransmisión, así como su uso para fines comerciales.