Godfather, Guns N´ Roses (tablatura)

Autor: kouyo | 34825 visualizaciones

|----------------------------------------------------------------|
|-15---14-15-16--15-15---------15---14-15-16--15-15--------------|
|----------------------15br-------------------------14br---------|
|----------------------------------------------------------------|
|----------------------------------------------------------------|
|----------------------------------------------------------------|

|---------------------------------------------------------------|
|-15---14-15-18--15-14-15rb---14rb-------14rb-------------------|
|----------------------------------------14rb--------14rb-------|
|---------------------------------------------------------------|
|---------------------------------------------------------------|
|---------------------------------------------------------------|

|----10-13-12-10-13-10-12-10-------------------------------------|
|-10-------------------------11-13-10rbrbrb---------------------|
|----------------------------------------------------------------|
|----------------------------------------------------------------|
|----------------------------------------------------------------|
|----------------------------------------------------------------|

|----10-13-12-10-13-10-12-10-------------------------------------|
|-10------------------------7/10-9-8rb--------------------------|

|---------------------------------------------------------------|

|---------------------------------------------------------------|

|----------------------------------------------------------------

|---------------------------------------------------------------|



|------------------6-9-9b----------------------------------------|

|----6-10-10b-----8--------13-11-10br-13-11-10rb-10rb-----------|

|-7---------------------------10--------------------------------|

|--------------------------12---------------------------11-12rb---|

|----------------------------------------------------------------|

|----------------------------------------------------------------|


|-10-10-9-8-10/12-10-------------------------------------------|
|--------------------11-10rb--10-13-10rb---8-11-9-10----------|
|----------------------------------------------------------------|
|----------------------------------------------------------------|
|----------------------------------------------------------------|
|----------------------------------------------------------------|
AQUÍ EMPIEZA LO CABRÓN TÓMENSE SU TIEMPO Y LES SALDRÁ
|-13-12-10--13-12-10--13-12-10-------------------------------------|
|------------------------------12--12--12-12-10-12-10-9-10-12-10-9-|
|------------------------------------------------------------------|
|------------------------------------------------------------------|
|----------------------------------------------------------------

|----------------------------------------------------------------


|-13-12-10-9-10-12-10-9----9-------------------------------------|
|-----------------------10---10-12-10-9----9----12---------------|
|---------------------------------------11---11----11-9----9-----|
|-------------------------------------------------------11---11--|
|----------------------------------------------------------------|
|----------------------------------------------------------------|

|-----------------------------9-10-------------------------------|
|--------13-11-10-13-11-10-10------------------------------------|
|-----10---------------------------------------------------------|
|-12------------------------------------------------------------|
|----------------------------------------------------------------|
|----------------------------------------------------------------|

Comentarios del colaborador: bueno eta tablatura es de una de las mejores canciones del men slash por lo cual es algo complicada tome la tablatura de una que ya estaba del men XXBLACKXPINKXX y le ise algunas modificaciones y les indica en donde van las distorciones y en donde empiesa lo cabron cualquier peticion de tablatura aganmela yegar y yo en maximo una semana se las tengo ogala que les guste de su serbidor kouyo

Calificar esta versión:
Aviso: Este fichero es trabajo propio de su transcriptor y representa su interpretación personal de la canción. El material contenido en esta página es para exclusivo uso privado, por lo que se prohibe su reproducción o retransmisión, así como su uso para fines comerciales.