El Padrino (version Andres), Guns N´ Roses (tablatura)

Autor: agussdenapole | 21494 visualizaciones

Bue, a mi me la enseñaron asi, si les gusta joya y sino voy a tu casa y te pego

6 -------------------------------------------
5 -------------------------------------------
4 -------------------------------------------
3 -------------------------------------------
2 ------------------6-8----------------------
1 -0-5-8-7-5-8-7-5------0-------------------- 


6 -------------------------------------------
5 -------------------------------------------
4 -------------------------------------------
3 -------------------------------------------
2 ------------------5-4-3--------------------
1 -0-5-8-7-5-8-7-5--------------------------- 


6 -------------------------------------------
5 -------------------------------------------
4 -------------------------------------------
3 ----------------------------------------1-2
2 -3----------3---------3--------------------
1 ---1-4-7------1-4-5-----1-3-1-0-1-0-1-0----

Bue el final esta medio medio pero bue es lo que hay...
Calificar esta versión:
Aviso: Este fichero es trabajo propio de su transcriptor y representa su interpretación personal de la canción. El material contenido en esta página es para exclusivo uso privado, por lo que se prohibe su reproducción o retransmisión, así como su uso para fines comerciales.