Duff Mckagan, Guns N´ Roses (bajo)

Autor: carlosgnr | 43576 visualizaciones

G|----------------------------------|
D|-------3-----------2-----3-----7--|
A|----------------------------------|
E|-3-1-3---3-1-3-0-0---0-0---0-0----|

G|--------------------------------------------------------|
D|------------2-3-----4-5-----2-3-----4-5-----2-3-----4-5-|
A|--------------------------------------------------------|
E|-3-1-3--x-x-----x-x-----x-x-----x-x-----x-x-----x-x-----|

G|-------------------------------------------------------------|
D|------5-5-5-5-3-5-5-5-5-5-5-3-5-5-5-5-5-5-3-5-5-5-5-5-5-5-5-5|
A|-------------------------------------------------------------|
E|-3-1-3-------------------------------------------------------|

G|--------------------------|    |-----------------|
D|-----------1------------1-|    |-4-4-4-4-3-3-1-1-|
A|--------------------------|X2  |-----------------|
E|-3-1-3-3-3---3-1-3-3-4----|    |-----------------|

G|--------------------------|    |-----------------|
D|-----------1------------1-|    |-4-4-4-4-3-3-1-1-|
A|--------------------------|X2  |-----------------|
E|-3-1-3-3-3---3-1-3-3-4----|    |-----------------|

NOTA: x = nota FANTASMA (silenciar la cadena con la mano izquierda si eres diestro, y usted simplemente golpea la cuerda a medida que normalmente lo hacen).

Comentarios del colaborador: ESPERO Q LES GUSTE :D

Calificar esta versión:
Aviso: Este fichero es trabajo propio de su transcriptor y representa su interpretación personal de la canción. El material contenido en esta página es para exclusivo uso privado, por lo que se prohibe su reproducción o retransmisión, así como su uso para fines comerciales.