Crash Diet, Guns N´ Roses (tablatura)

Autor: Javigunner | 39361 visualizaciones

La mayoria de o es decir mejor  Todas las canciones de 
Guns n' Roses tienen afinacion medio tono 

Intro :


e|---------------------------------------------------------|
B|---------------------------------------------------------|
G|------0-------0---------0--------0-----------------------|
D|----4---4---4---4-----2---2----2---2---------------------|
A|--7-------5-------5-4--------3-------3-------------------|
E|---------------------------------------------------------| X4


Solo

e|-----------------------------------------------------------------|
B|-----------------------------------------------------------------|
G|------9-----7------5------4-----------9-----7-------5-----4------|
D|------9-----7------5------4-----------9-----7-------5-----4------|
A|------7-----5------3------2-----------7-----5-------3-----2------|
E|--0-0---0-0----0-0----0-0---0-0-0-0-0---0-0----0-0----0-0--------|
    PM-------------------------PM--------------------------PM

PM : palm mute ( tocar con el la mano descansada en el puente)

Comentarios del colaborador: Solo puse eso :D si tengo el resto pero para que ! Si el solo y en intro es lo mas importante :D

Calificar esta versión:
Aviso: Este fichero es trabajo propio de su transcriptor y representa su interpretación personal de la canción. El material contenido en esta página es para exclusivo uso privado, por lo que se prohibe su reproducción o retransmisión, así como su uso para fines comerciales.