Chinese Democracy (intro), Guns N´ Roses (tablatura)

Autor: slasheroo | 33014 visualizaciones

Chinese Democracy 

Guns N Roses 

||--------------------------------------------------------
||-----------------6-5---8-8------------------------------    ||---------------7-----7----------------------------------      
||-------------7------------------------------------------
||----------5---------------------------------------------
||--------------------------------------------------------

se repite

||---------------------------------------------------------
||-----------------6-5---8-8-8-8-8-8-----------------------
||---------------7-----7-----------------------------------     
||-------------7-------------------------------------------
||----------5----------------------------------------------   ||---------------------------------------------------------



||----------------------------------------------------
||----------------------------------------------------
||---7-7---9-9---12-12--------------------------------      
||---7-7---9-9---12-12--------------------------------       
||---5-5---8-8---10-10--------------------------------
||----------------------------------------------------

se repite varias veces 

||----------------------------------------------
||----------------------------------------------
||---7-7---9-9---12-12---13-13-13---------------     
||---7-7---9-9---12-12---13-13-13---------------      
||---5-5---8-8---10-10---11-11-11---------------
||----------------------------------------------




||--------------------------------------------------------------
||--------------------------------------------------------------||---7-7---9-9---12-12---13-13-13---12-12---13-13-13------------
||---7-7---9-9---12-12---13-13-13---12-12---13-13-13------------
||---5-5---8-8---10-10---11-11-11---10-10---11-11-11------------
||--------------------------------------------------------------
 

 y sigue la cancion :S

                   NOSE SI ESTA PERFECTA PERO LO INTENTE :)
Calificar esta versión:
Aviso: Este fichero es trabajo propio de su transcriptor y representa su interpretación personal de la canción. El material contenido en esta página es para exclusivo uso privado, por lo que se prohibe su reproducción o retransmisión, así como su uso para fines comerciales.