Attitude (cover De The Misfits), Guns N´ Roses (bajo)

Autor: xxblackxpinkxx | 38188 visualizaciones

'Attitude (Cover de The Misfits)', Duff McKagan de los Guns N' Roses


*Transcripto por Seba A.
*2007, buenos aires, argentina
*Tema original de Los Misfits,interpretado por Duff McKagan en los conciertos de Guns N' Roses. Los coros bajos, hechos por Izzy Stradlin y Slash.
*Típico de Duff, siempre con el Punk.
______________________________________________________________

INTRO:
G|-------------------------------------
D|-------------------------------------
A|5-5-5-5-5-5-5-5-5-5-5-5-5-5-5-5-5-5-5
E|-------------------------------------

============================================

VERSOS 1:
G|-----------------------------------
D|-----------------------------------
A|5-5-5-5-5-5-5-5-5------------------
E|------------------3-3-3-3-3-3-3-3-3
[repetir 4 veces]

Attitude, you got some fucking attitude
I can't believe what you say to me
You got some attitude
============================================

ESTRIBILLO:
G|--------------------------------------------------
D|--------------------------------------------------
A|--------------------------------------------------
E|2-2-2-2-2-2-2-2-2-2-2-2-3-3-3-3-5-5-5-5-2-2-2-2-2-
[repetir 2 veces]

Inside your feeble brain there's probably a whore
If you don't shut your mouth you're gonna feel the floor

============================================
VERSOS 2:
G|-----------------------------------
D|-----------------------------------
A|5-5-5-5-5-5-5-5-5------------------
E|------------------5-5-5-5-5-5-5-5-5
[repetir 4 veces]

Attitude, the one you got, oh baby
Attitude, the one you got, oh baby
Attitude, attitude

============================================

ESTRIBILLO:
G|--------------------------------------------------
D|--------------------------------------------------
A|--------------------------------------------------
E|2-2-2-2-2-2-2-2-2-2-2-2-3-3-3-3-5-5-5-5-2-2-2-2-2-
[repetir 2 veces]

Inside your feeble brain there's probably a whore
If you don't shut your mouth you're gonna feel the floor

============================================

SOLO:
G|-----------------------------------
D|-----------------------------------
A|5-5-5-5-5-5-5-5-5------------------
E|------------------5-5-5-5-5-5-5-5-5
[repetir por todo el solo, aprox. 4 veses]
============================================

VERSOS 3:
G|-----------------------------------
D|-----------------------------------
A|5-5-5-5-5-5-5-5-5------------------
E|------------------5-5-5-5-5-5-5-5-5
[repetir 8 veces]

Attitude, you got some fucking attitude
(Attitude) I can't believe what you say to me
You got some attitude!

Ooh! Attitude, you got some fucking attitude
(Attitude) I can't believe what you say to me
You got some attitude!

============================================

OUTTRO:
G|---------------------------
D|---------------------------
A|---------------------------
E|4-4-4-4-4-4-4-4-4-4-4-4-4-4
[repetir hasta el final]
Calificar esta versión:
Aviso: Este fichero es trabajo propio de su transcriptor y representa su interpretación personal de la canción. El material contenido en esta página es para exclusivo uso privado, por lo que se prohibe su reproducción o retransmisión, así como su uso para fines comerciales.