Ojala, Guillermo Plata (acordes)

Autor: mArtiinrOman | 25208 visualizaciones

aa7amcdmemfgg7
 intro:
    C		   F	      C	      F
e|------12--10--8--8~---------------------------
B|--------------------6-8-10~-8-5-3-1-1~--------
G|--12-------------------------------------0-2~-
D|---------------------------------------3------
A|----------------------------------------------
E|----------------------------------------------

	     C               Em
Hablare directo, quitame la duda
              A 
Dime que este sueño
              A7               Dm
De que puede ser no es una tontería
	     F  G7		C      Am
Yo que más daría, por que fuera cierto
		Dm		  F
Que este amor secreto se volviera real
	        G
Es lo que yo quería?

	     C                    Em
Yo sabré escucharte, y no tengas miedo
	      A 
Si no te interesa
	      A7		 Dm
Tu no te preocupes ya no habrá remedio
	   F    G7	     C	   Am
Ojala me quieras, y si no que pena
	    Dm			  F
Más te llevare siempre en mi pensamiento
	    G
Hasta que me muera

	 C		     Em
Ojala me quieras, es mi fantasía
	      A			     A7
Que se vuelva real, que yo me sienta tuyo
	     Dm
Y que tú seas mía
	   F      G7	      C	    Am
Y si no me quieres dímelo tranquila
	       Dm    F		    G
Que mi amor es fuerte más de lo que creía

	C			 Em
Ojala me quieras como al sol, el día
	     A		    A7
Como lo he soñado como imagine
	      Dm
Tu boca con la mía
	      F   G7	       C     Am
Llenos del perfume de una cama tibia
	 Dm	 F	      G
Ojala me quieras, ojala algún día
	    C
Ojala algún día.

    C		   F	      C	      F
e|------12--10--8--8~---------------------------
B|--------------------6-8-10~-8-5-3-1-1~--------
G|--12-------------------------------------0-2~-
D|---------------------------------------3------
A|----------------------------------------------
E|----------------------------------------------

	esta otra parte se puntea mas rapido
	  Dm		    G
e|---------5------------5-7-10------------------
B|-----5h6--------5-6-8--------8-8~-------------
G|-5h7-------7-7~-------------------------------
D|----------------------------------------------
A|----------------------------------------------
E|----------------------------------------------

	      C                 Em
Solo es un instante para que respondas
		A		     A7
Y este es el momento en que estoy mas cerca
	     Dm
De abrazarte toda
	  F	G7		 C	Am
Tomate tu tiempo, muchas, muchas horas
	      Dm		  F
Quiero estar así antes que sea el fin
		G
O que me des la gloria.


	 C		     Em
Ojala me quieras, es mi fantasía
	      A			     A7
Que se vuelva real, que yo me sienta tuyo
	     Dm
Y que tú seas mía
	   F      G7	      C	    Am
Y si no me quieres dímelo tranquila
	       Dm    F		    G
Que mi amor es fuerte más de lo que creía

	C			 Em
Ojala me quieras como al sol, el día
	     A		    A7
Como lo he soñado como imagine
	      Dm
Tu boca con la mía
	      F   G7	       C     Am
Llenos del perfume de una cama tibia
	 Dm	 F	      G
Ojala me quieras, ojala algún día
	    C
Ojala algún día.

    C	      	        F    C	         F
e|--7-7h10-8~----------------1h3-1-0----------1h3-1-0---------------
B|------------1h3-1------------------1----------------1-------------
G|--------------------0-2~-------------0-2~-------------0-2~---3-1~-
D|------------------3-----------------------------------------------
A|------------------------------------------------------------------
E|------------------------------------------------------------------

 
Calificar esta versión:
Aviso: Este fichero es trabajo propio de su transcriptor y representa su interpretación personal de la canción. El material contenido en esta página es para exclusivo uso privado, por lo que se prohibe su reproducción o retransmisión, así como su uso para fines comerciales.