El Baile De La Cumbia, Grupo Nectar (tablatura)

Autor: Anónimo | 19615 visualizaciones

intro:

e|-------------------------
b|-------------------------
G|------2-2----------2-2---
D|-4-2-4---4-2--4-2-4---4--
A|--4------------4---------
E|-------------------------

   FA#m          MI          FA#m               MI                 FA#m
e|---7/9-9-7--9-7-7--7-7-7-9-9-9----7/9-9-7--9-7-7-----------7--9-------
b|-10-------10------9---9---------10-------10-----9-9-9-9-9-9----7-10-7-
G|----------------------------------------------------------------------
D|----------------------------------------------------------------------
A|----------------------------------------------------------------------
E|----------------------------------------------------------------------

                     MI
Busco una chica como tu
                          FA#m
Para bailar la cumbia asi asi
                    MI
Busco una chica como tu
                          FA#m
El baile de la cumbia va empezar. (bis)


   FA#m          MI          FA#m               MI                 FA#m
e|---7/9-9-7--9-7-7--7-7-7-9-9-9----7/9-9-7--9-7-7-----------7--9-------
b|-10-------10------9---9---------10-------10-----9-9-9-9-9-9----7-10-7-
G|----------------------------------------------------------------------
D|----------------------------------------------------------------------
A|----------------------------------------------------------------------
E|----------------------------------------------------------------------

                     MI
Busco una chica como tu
                          FA#m
Para bailar la cumbia asi asi
                    MI
Busco una chica como tu
                          FA#m
El baile de la cumbia va empezar(bis)

                         MI
Si vienes esta tarde yo te llevaré
                 FA#m
a tu cupán a bailar a bailar
                         MI
si llegas hacer tiempo yo te llevaré
                  FA#m
hacerte cucuy o anda a tragar

    FA#m          MI          FA#m
e|---------------------------7---------
b|----------5-9-7--9-9-9-9-9--9-7-5-7--
G|-6-6-6-7-6---------------------------
D|-------------------------------------
A|-------------------------------------
E|-------------------------------------

                 MI           FA#m
e|--------------------------7----------
b|----------5-9-7--9-9-9-9-9--9-7-5-7--
G|-6-6-6-7-6---------------------------
D|-------------------------------------
A|-------------------------------------
E|-------------------------------------

                       MI
Si vienes esta tarde yo te llevaré
                   FA#m
a tu cupán a bailar a bailar
                       MI
si llegas hacer tiempo yo te llevaré
                    FA#m
hacerte cucuy o anda a tragar


repetir todo
Calificar esta versión:
Aviso: Este fichero es trabajo propio de su transcriptor y representa su interpretación personal de la canción. El material contenido en esta página es para exclusivo uso privado, por lo que se prohibe su reproducción o retransmisión, así como su uso para fines comerciales.