Viento, Grupo Celeste (tablatura)

Autor: Mike00elrey | 46 visualizaciones



Esta es la introducción

e|-9-11-12-12-12-11-9-11--------9-11-11-11-9----9--------------|
B|-----------------------12--12--------------12----------------|
G|-------------------------------------------------------------|x2
D|-------------------------------------------------------------|
A|-------------------------------------------------------------|
E|-------------------------------------------------------------|

Este es cuando empieza a cantar, la guitarra acompañadora

e|--9----------------------------------------------------------|
B|-9--12--12---------9-----------------------------------------|
G|-----------11-9-11-------------------------------------------|x2
D|-------------------------------------------------------------|
A|-------------------------------------------------------------|
E|-------------------------------------------------------------|

e|-----9-9-7--------7-7-9--------------------------------------|
B|-9-9-------7--7-7-------9------------------------------------|
G|-------------------------------------------------------------|x2
D|-------------------------------------------------------------|
A|-------------------------------------------------------------|
E|-------------------------------------------------------------|

e|-9-9-12-12-11-----------11-11-12-9---------------------------|
B|--------------12--12-12--------------------------------------|
G|-------------------------------------------------------------|
D|-------------------------------------------------------------|
A|-------------------------------------------------------------|
E|-------------------------------------------------------------|

e|-9-9-12-12-11-----------11-11-12--12-11----11-9-9-12-11----11-9
B|--------------12--12-12-----------------12--------------12-----
G|---------------------------------------------------------------
D|---------------------------------------------------------------
A|---------------------------------------------------------------
E|---------------------------------------------------------------

-9-12-11----11-9--9-12-11----9?9h12-9--------------------------|
---------12---------------12-----------------------------------|
---------------------------------------------------------------|
---------------------------------------------------------------|
---------------------------------------------------------------|
---------------------------------------------------------------|

Terminando aquí se repite la intro y luego todo.





Comentarios del colaborador: Fue grabada en 1978 con la voz de Chacalón, antes de que Lorenzo Palacios Quispe "Chacalón" dejara al grupo.

Calificar esta versión:
Aviso: Este fichero es trabajo propio de su transcriptor y representa su interpretación personal de la canción. El material contenido en esta página es para exclusivo uso privado, por lo que se prohibe su reproducción o retransmisión, así como su uso para fines comerciales.