Cuando Agosto Era 21, Grupo Bonanza (tablatura)

Autor: scream | 30511 visualizaciones



e--0-2-3-2-0-----0-2--5-2-0--------
b------------2-3—-----------3------
G----------------------------------
D----------------------------------
A----------------------------------
E----------------------------------


e------0-------------0-2-----------
b--2-3---3-2---0-2-3-—-------------
G------------3---------------------
D----------------------------------
A----------------------------------
E----------------------------------


e--0-2-3--7-9-10-9-7-9-9-7-5---5-7-9-7-
b-------------—------------------------
G---------------------------------------
D---------------------------------------
A--------------------------------------
E--------------------------------------


e--7-5-3--3-5-7-6---4-4-6-7-2-------
b-------------—---------------3-0---
G-----------------------------------
D-----------------------------------
A-----------------------------------
E-----------------------------------





Calificar esta versión:
Aviso: Este fichero es trabajo propio de su transcriptor y representa su interpretación personal de la canción. El material contenido en esta página es para exclusivo uso privado, por lo que se prohibe su reproducción o retransmisión, así como su uso para fines comerciales.