All By Myself (cancion Secreta), Green Day (tablatura)

Autor: <--manu--> | 16031 visualizaciones

Riff 1
e|-2---2---2---2---3---3---3---3---------------------------------|
B|---3---3---3---3---3---3---3---3-------------------------------|
G|-----------------0---------------------------------------------|
D|-0-------------------------------------------------------------|
A|---------------------------------------------------------------|
E|---------------------------------------------------------------|

Riff 2
e|-4---4---4---4---5---5---5---5---------------------------------|
B|---5---5---5---5---5---5---5---5-------------------------------|
G|---------------------------------------------------------------|
D|---------------------------------------------------------------|
A|-----------------0---------------------------------------------|
E|-0-------------------------------------------------------------|


Order

Spanish intro thing + talking & laughing
Riff 1 x2
Verse 1 (Riff 1 x6)
Verse 2 (Riff 2 x4)
Verse 3 (Riff 1 x4)
Verse 4 (Riff 2 x4)


Lyrics

I was alone 
I was all by myself 
No was looking			(Verse 1)
I was thinking of you 
Yeah, did I mention

I was all by myself 
All by myself			(Verse 2)
All by myself 
All by myself 

I went to your house 
But no one was there		(Verse 3)
I went to your room 
I was all by myself 

You and me had 
Such wonderful times		(Verse 4)
When I'm all by myself 
All by myself... 
Calificar esta versión:
Aviso: Este fichero es trabajo propio de su transcriptor y representa su interpretación personal de la canción. El material contenido en esta página es para exclusivo uso privado, por lo que se prohibe su reproducción o retransmisión, así como su uso para fines comerciales.