Album American Idiot Completo, Green Day (tablatura)

Autor: <--manu--> | 29907 visualizaciones

Tracks:
1.      American Idiot                          
2.      Jesus Of Suburbia
   I.      Jesus of Suburbia            
   II.     City of the Damned
   III.    I Don't Care
   IV.     Dearly Beloved
   V.      Tales of Another Broken Home
3.      Holiday                         
4.      Boulevard Of Broken Dreams                      
5.      Are We the Waiting
6.      St. Jimmy                       
7.      Give Me Novacaine                       
8.      She's A Rebel
9.      Extraordinary Girl                      
10.     Letterbomb              
11.     Wake Me Up When September Ends                  
12.     Homecoming
   I.      The Death of St. Jimmy               
   II.     East 12th Street
   III.    Nobody Likes You
   IV.     Rock and Roll Girlfriend
   V.      We're Coming Home Again
13.     Whatsername


************************************************************
------------------------------------------------------------
Track 1: American Idiot
------------------------------------------------------------

Note: The xxx000 in the Main Riff/Verse is often overlooked.
Listen to the song carefully; it often replaces the final F#5.

As far as I've seen, though, they don't bother with it while
playing live, so you can just play an F#5 instead.

Main Riff:
   G#5  C#5  F#5  C#5 G#5 F#5
e|----------------------------------|
B|----------------------------------|
G|------6---------6-----------------|
D|-6----6----4----6---6---4---------|
A|-6----4----4----4---6---4---------|
E|-4---------2--------4---2---------|

   G#5  C#5  F#5  C#5 G#5 
e|------------------------0---------|
B|------------------------0---------|
G|------6---------6-------0---------|
D|-6----6----4----6---6-------------|
A|-6----4----4----4---6-------------|
E|-4---------2--------4-------------|

Verse:
                 G#5  C#5  F#5  C#5 G#5 F#5   
e|-------------------------------------------|
B|-------------------------------------------|
G|--------------------6---------6------------|
D|--(drums)------6----6----4----6---6---4----|
A|---------------6----4----4----4---6---4----|
E|---------------4---------2--------4---2----|

                 G#5  C#5  F#5  C#5 G#5    
e|--------------------------------------0-----|
B|--------------------------------------0-----|
G|--------------------6---------6-------0-----|
D|--(drums)------6----6----4----6---6---------|
A|---------------6----4----4----4---6---------|
E|---------------4---------2--------4---------|

                 G#5  C#5  F#5  C#5 G#5 F#5   
e|-------------------------------------------|
B|-------------------------------------------|
G|--------------------6---------6------------|
D|--(drums)------6----6----4----6---6---4----|
A|---------------6----4----4----4---6---4----|
E|---------------4---------2--------4---2----|


                 G#5  C#5  F#5  C#5 G#5 
e|-------------------------------------------|
B|-------------------------------------------|
G|--------------------6---------6------------|
D|--(drums)------6----6----4----6---6--------|
A|---------------6----4----4----4---6--12---|
E|---------------4---------2--------4--------|

Chorus:
   C#5  G#5  D#5  G#5
e|----------------------------|
B|----------------------------|
G|-6---------8----------------|
D|-6----6----8----6-----------|
A|-4----6----6----6-----------|
E|------4---------4-----------|

   C#5  G#5  D#5  
e|--------------------------|
B|--------------------------|
G|-6---------8--------------|
D|-6----6----8--------------|
A|-4----6----6--------------|
E|------4-------------------|


Solo:

e|---------------------------------------------------------------|
B|---------------------------------------------------------------|
G|--10-10-10-10-10-10-10-10-8-6---8-8-8-8-8-8/10-8-6-5-----------|
D|---------------------------------------------------------------|
A|--8--8--8--8--8--8--8--8--6-4---6-6-6-6-6-6/8--6-4-3-----------|
E|---------------------------------------------------------------|

e|------------------------------6----8----6----------------------|
B|-------------------------9-----------------9v------------------|
G|--3-3-3-3-3-5-6-5-3---88---88---88---88--8---------------------|
D|---------------------------------------------------------------|
A|---------------------------------------------------------------|
E|---------------------------------------------------------------|

e|---------------------------------------------------------------|
B|---------------------------------------------------------------|
G|--10-10-10-10-10-10-10-10-8-6---8-8-8-8-8/10-8-6-5-------------|
D|---------------------------------------------------------------|
A|--8--8--8--8--8--8--8--8--6-4---6-6-6-6-6/8--6-4-3-------------|
E|---------------------------------------------------------------|

e|---------------------------------------------------------------|
B|---------------------------------------------------------------|
G|--3-3-3-3-3-5-6-5-3-8/13v--------------------------------------|
D|---------------------------------------------------------------|
A|---------------------------------------------------------------|
E|---------------------------------------------------------------|

End:

   G#5  C#5  F#5  C#5 G#5
e|-------------------------0--------| 
B|-------------------------0--------|
G|------6---------6--------0--------|
D|-6----6----4----6---6-------------|
A|-6----4----4----4---6-------------|
E|-4---------2--------4-------------|

   G#5  C#5  F#5  C#5 G#5 F#5
e|----------------------------------|
B|----------------------------------|
G|------6---------6-----------------|
D|-6----6----4----6---6---4---------|
A|-6----4----4----4---6---4---------|
E|-4---------2--------4---2---------|

   G#5  C#5  F#5  C#5 G#5 
e|------------------------0---------| 
B|------------------------0---------|
G|------6---------6-------0---------|
D|-6----6----4----6---6-------------|
A|-6----4----4----4---6-------------|
E|-4---------2--------4-------------|

   G#5  C#5  F#5  C#5 G#5 F#5
e|----------------------------------|
B|----------------------------------|
G|------6---------6-----------------|
D|-6----6----4----6---6---4---------|
A|-6----4----4----4---6---4---------|
E|-4---------2--------4---2---------|

   G#5  C#5  F#5  C#5 G#5
e|----------------------------------|
B|----------------------------------|
G|------6---------6-----------------|
D|-6----6----4----6---6-------------|
A|-6----4----4----4---6-------------|
E|-4---------2--------4-------------|

Order:

Main Riff x2
Verse
Chorus
Main Riff x1
Verse
Chorus
Main Riff x1
Chorus w/ Solo (no lyrics)
Second part of Main Riff x5
Chorus
End

Lyrics:

Don't wanna be an American idiot
Don't want a nation under the new mania         (Verse 1)
Can you hear the sound of hysteria?
The subliminal mind-fuck America

Welcome to a new kind of tension
All across the alien nation
Everything isn't meant to be OK                 (Chorus)
Television dreams of tomorrow
We're not the ones meant to follow
For that's enough to argue

Well, maybe I'm the faggot, America
I'm not a part of a redneck agenda              (Verse 2)
Now everybody do the propaganda
And sing along in the age of paranoia

(Chorus)

Don't wanna be an American idiot
One nation controlled by the media              (Verse 3)
Information age of hysteria
It's going out to idiot America

(Chorus)


************************************************************
------------------------------------------------------------
Track 2: Jesus of Suburbia
------------------------------------------------------------

The song is split up into 5 parts as describe by the CD booklet,
and I've tabbed each one as it's own song.

------------------------------------------------------------
I.   Jesus of Suburbia
------------------------------------------------------------
   
Verse:    
   C#5        A#5        F#5              G#5
e|---------------------------------------------------------|
B|---------------------------------------------------------|
G|-6-6-6-6-------------------------------------------------|
D|-6-6-6-6----8-8-8-8----444444444444444--666666666666666--|
A|-4-4-4-4----8-8-8-8----444444444444444--666666666666666--|
E|------------6-6-6-6----222222222222222--444444444444444--|

Chorus:
   F#5   G#5    x3
e|--------------|
B|--------------|
G|--------------|
D|-4444--66666--|
A|-4444--66666--|
E|-2222--44444--|

Bridge:
   C#5  G#5  F#5        x2
e|----------------------|
B|----------------------|
G|-6-6------------------|
D|-6-6--6-6--4-4444444--|
A|-4-4--6-6--4-4444444--|
E|------4-4--2-2222222--|

Outro:
   C#5        F5         A#5    G#5    F#5
e|----------------------------------------|
B|----------------------------------------|
G|-6-6-6-6--------------------------------|
D|-6-6-6-6----3-3-3-3----8-8-8--6-6-6--4--|
A|-4-4-4-4----3-3-3-3----8-8-8--6-6-6--4--|
E|------------1-1-1-1----6-6-6--4-4-4--2--|
                                      (Let ring)
                                
Order:
Verse x2
Chorus
Riff 1
Verse x2
Chorus
Riff 1
Verse (no lyrics)
Outro
  
Lyrics:

I'm the son of rage and love
The Jesus of Suburbia                           (Verse 1)
From the Bible of "none of the above"
On a steady diet of 

Soda pop and Ritalin
No one ever died for my sins in hell            (Verse 2)
As far as I can tell                            
At least the ones I've gotten away with

And there's nothing wrong with me
This is how I'm supposed to be                  (Chorus)
In a land of make believe
That don't believe in me

Get my television fix 
Sitting on my crucifix                          (Verse 3)
The living room in my private womb
While the moms and brads are away

To fall in love and fall in debt
To alcohol and cigarettes                       (Verse 4)
And Mary Jane to keep me insane
And doing someone else's cocaine 

(Chorus)

------------------------------------------------------------
II.  City of the Damned
------------------------------------------------------------

Intro:
   F#5   G#5
e|-----------|
B|-----------|  Come in from final F#5 of Jesus of Suburbia
G|-----------|
D|-4-----6---|
A|-4-----6---|
E|-2-----4---|

Verse:
   C#5     A#5 G#5    F#5 G#5
e|----------------------------|
B|----------------------------|
G|-6---6----------------------|
D|-6---6---8---6------4---6---|
A|-4---3---8---6------4---6---|
E|---------6---4------2---4---|

Chorus:
   A#5   G#5   C#5   F#5   A#5   G#5   F#5
e|-----------------------------------------|
B|-----------------------------------------|
G|-------------6---------------------------|
D|-8-----6-----6-----4-----8-----6-----4---|
A|-8-----6-----4-----4-----8-----6-----4---|
E|-6-----4-----------2-----6-----4-----2---|

Order:

Intro
Verse x2
Chorus
Verse x2
Hold final F#5

Lyrics:

At the center of the earth
In the parking lot                              (Verse 1)
Of the 7-11 were I was taught
The motto was just a lie

It says home is were your heart is
But what a shame                                (Verse 2)
Cause everyone's heart doesn't beat the same
We're beating out of time

City of the dead
At the end of another lost highway
Sign misleading to nowhere                      (Chorus)
City of the damned
Lost children with dirty faces today
No one really seems to care

I read the graffiti
In the bathroom stall                           (Verse 3)
Like the holy scriptures of a shopping mall
And so it seemed to confess

It didn't say much
But it only confirmed that                      (Verse 4)
The center of the earth is the end of the world
And I could really care less 

(Chorus)

------------------------------------------------------------
III. I Don't Care
------------------------------------------------------------

Intro: 
   G#5    C#5   G#5    C#5   F#5    C#5     G#5  x5
e|-----------------------------------------------|
B|-----------------------------------------------|
G|--------6------------6------------6------------|
D|-6------6-----6------6-----4------6-------6----|
A|-6------4-----6------4-----4------4-------6----|
E|-4------------4------------2--------------4----|

Intro lead:
e|-----------------------------------------------|
B|---------------------6-----7-7-77-6-------9v---|
G|--------6-6-6----------8-6----------8-6-8------|
D|-6-6-66-------6-6-66---------------------------|
A|-----------------------------------------------|
E|-----------------------------------------------|


Riff 1:
   F#G#5     C#5   A5G#5  x4     
e|--------|---------------|
B|--------|---------------|
G|--------|--6------------|
D|-4-6----|--6-----7-6----|
A|-4-6----|--4-----7-6----|
E|-2-4----|--------5-4----|


Verse:
                          A5G#5  x8
e|-------------------------------|
B|-------------------------------|
G|-------(bass)------------------|
D|------------------------7-6----|
A|-4-4-4-4-4-4-4-4-4-4----7-6----|
E|------------------------5-4----|


Chorus:
   F#5  G#5  C#G#5  x3  F#5  G#5
e|--------------------------------|
B|--------------------------------|
G|-----------6--------------------|
D|-4----6----6-6--------4----6----|
A|-4----6----4-6--------4----6----|
E|-2----4------4--------2----4----|

Riff 2:
   F#G#5  C#5  x4
e|-------------|
B|-------------|
G|--------6----|
D|-4-6----6----|
A|-4-6----4----|
E|-2-4---------|

Outro
   C#5       G#5
e|-------------|
B|-------------|
G|-6-6-6-66----|
D|-6-6-6-66-6--|
A|-4-4-4-44-6--|
E|----------4--|
           (Let ring)
            
Order:

Intro w/Intro lead
Intro x4
Riff 1
Verse
Chorus
Riff 2
Outro
            
Lyrics:

I don't care if you don't
I don't care if you don't               (Intro) x4      
I don't care if you don't care
                         
I don't care!                           (Riff 1)

Everyone is so full of shit
Burn and raised by hipocrits
Hearts recycled but never saved
From the cradle to the grave            (Verse) 
We are the kids of war and peace
From Anaheim to the Middle East
We are the stories and disciples
Of the Jesus of Suburbia

Land of make believe
And it don't believe in me              (Chorus)                
Land of make believe
And I don't believe

And I don't care!
I don't care!
I don't care!                           (Riff 2)
I don't care!
I don't care!

------------------------------------------------------------
IV.  Dearly Beloved
------------------------------------------------------------

The first time, a distorted electric guitar strums each
chord once.  After that, an acoustic strums through them
with the electric palm muting.   

Only Riff:   
   G#5  C5   C#5  G#5D#5 x6
e|-----------------------|
B|-----------------------|
G|------5----6-------8---|
D|-6----5----6----6--8---|
A|-6----3----4----6--6---|
E|-4--------------4------|


Lyrics:

Dearly beloved are you listening?
I cant remember a word that you were saying
Are we demented or are we disturbed?
The space that's in between insane and insecure

Oh therapy, can you please fill the void?
Am I retarded or am I just overjoyed
Nobody's perfect and I stand accused
For lack of a better word, and that's my best excuse

------------------------------------------------------------
 V.  Tales of Another Broken Home
------------------------------------------------------------

Intro: 
   G#5                  F#5 C#5  x4
e|-------------------------------|
B|-------------------------------|
G|--------(bass)------------6----|
D|-6--------------------4---6----|
A|-6--------------------4---4----|
E|-4---4-4-4-4-4-4-4----2--------|
 
Main Riff:  
   G#5                  F#5 C#5   
e|-------------------------------| 
B|-------------------------------| 
G|--------------------------6----| 
D|-6-6-6-6-6-6-6-6-6----4---6----| 
A|-6-6-6-6-6-6-6-6-6----4---4----| 
E|-4-4-4-4-4-4-4-4-4----2--------|

Chorus
   C# G# C# G# C#    D# G# D# G# D#    x2
e|-------------------------------------|
B|-------------------------------------|
G|-6-----6-----6-----8-----8-----8-----|
D|-6--6--6--6--6-----8--8--8--8--8-----|
A|-4--6--4--6--4-----6--8--6--8--6-----|
E|----4-----4-----------6-----6--------|

Solo 1:
                                                x2
e|----------------------------------------------|
B|----------------------------------------------|
G|----------------------------------------------|
D|-10-13---13-15-11-13------11-10--10-11-8-10---|
A|----------------------------------------------|
E|----------------------------------------------|

Solo 2:                                                       x2
e|------------------------------------------------------------|
B|------------------------------------------------------------|
G|-9p8p6-9p8p6-9p8p6-9p6---11p9p8-11p9p8-11p9p8-11p9p8-11p8---|
D|-----------------------9---------------------------------11-|
A|------------------------------------------------------------|
E|------------------------------------------------------------|

Piano Interlude:

C#           D#
I don't feel any shame
  G#        C#
I wont apologize
C#               D#              G#
When there ain't nowhere you can go

C#       D#
Running away from pain
      G#               C#
When you've been victimized
C#          D#
Tales from another broken...


Order:

Intro
Main Riff x8
Chorus
Main Riff x8
Chorus x2
Main Riff x2
Main Riff x4 w/Solo 1
Chorus w/Solo 2
Piano Interlude
Main Riff x6


Lyrics:

To live and not to breathe
Is to die in tragedy                    (Verse 1)
To run, to run away
To find what you believe

And I 
Leave behind                            (Chorus)
This hurricane of fucking lies

I lost my faith to this
This town that don't exist              (Verse 2)
So I run, I run awy 
The light of masochist

And I 
Leave behind                            (Chorus)
This hurricane of fucking lies

And I 
Walked this line                        (Chorus 2)
A million and one fucking times

But not this time

I don't feel any shame
I wont apologize
When there ain't nowhere you can go     (Piano Interlude)
Running away from pain
When you've been victimized
Tales from another broken...

Home!
You're leavin'
You're leavin'                          
You're leavin'
You're leavin HOME!


************************************************************
------------------------------------------------------------
Track 3: Holiday
------------------------------------------------------------


Intro Riff:          
e|--------------------|
B|-9----6----13---8---|
G|-10---6----13---8---|
D|-x----x----x----x---| 
A|-8----4----11---6---|
E|--------------------|

Main Riff:
   F5  C#5 G#5 D#5 
e|-----------------|
B|-----------------|
G|-10--6-------8---|
D|-10--6---6---8---|
A|-8---4---6---6---|
E|---------4-------|

Verse:
   F5  C#5 G#5 D#5    F5  C#5 G#5 C5    F5  C#5 G#5 D#5  C5
e|-----------------------------------------------------------|
B|-----------------------------------------------------------|
G|-10--6-------8------10--6-------5------10--6-------8---5---|
D|-10--6---6---8------10--6---6---5------10--6---6---8---5---|
A|-8---4---6---6------8---4---6---3------8---4---6---6---3---|
E|---------4------------------4------------------4-----------|

Chorus:
   F5     C#5    G#5    D#5    F5     C#5    G#5    C5  
e|------------------------------------------------------|
B|------------------------------------------------------|
G|--------6-------------8-------------6-------------5---|
D|-3------6------6------8------3------6------6------5---|
A|-3------4------6------6------3------4------6------3---|
E|-1-------------4-------------1-------------4----------|

Bridge:
   F5  G#5 C# A# D# F    F5   G# D# C  F    x2
e|------------------------------------------|
B|------------------------------------------|
G|---------6-----8---------------8-----10---|
D|-3---6---6--8--8--10----3---6--8--10-10---|
A|-3---6---4--8--6--10----3---6--6--10-8----|
E|-1---4------6-----8-----1---4-----8-------|

Solo:
Guitar 1:
   C#5       G#5          C5       F5      D#5     
e|------------------------------------------------|
B|------------------------------------------------|
G|-6----------------------5--------10------8------|
D|-6---------6------------5--------10------8------|
A|-4---------6------------3--------8-------6------|
E|-----------4------------------------------------|

Guitar 2:   
e|------------------------------------8------8----|
B|-----------8-9----------8----------------8---8--|
G|-10-10-10------8-6-5--5---9-5--5/10---10--------|
D|------------------------------------------------|
A|------------------------------------------------|
E|------------------------------------------------|

Guitar 1:
   C#5       G#5          C5 (strum through)                                       
e|--------------------------------------------------------------------|
B|--------------------------------------------------------------------|
G|-6----------------------5-------------------------------------------|
D|-6---------6------------5-------------------------------------------|
A|-4---------6------------3-------------------------------------------|
E|-----------4--------------------------------------------------------|

Guitar 2:                                                        (let ring)
e|------------------------------------------------12-12-12-12-12/13---|
B|-----------8-9-------------------------13-13-13---------------------|
G|-10-10-10------8-6-5-55/12-12-12-12-12------------------------------|
D|--------------------------------------------------------------------|
A|--------------------------------------------------------------------|
E|--------------------------------------------------------------------|
     
Interlude:                                                  
                                                            x6 
G|----------------------------------------------------------|
D|----------------------------------------------------------|
A|----------------4-----6----------------------6-----8------|
E|--1-1-1--4-4-4-----6-----81---1-1-1--4-4-4-----8-----1--|

                                               D# C5 F5    
e|----------------------------------------------------------|
B|---This-is-played-on--------------------------------------|
G|--------the-sixth-repeat:--------------------8-----10-----|
D|---------------------------------------------8--10-10-----|
A|---------------------------------------------6--10-8------|
E|------------------------------------------------8---------|

    C5         
e|------|
B|------|
G|--5---|
D|--5---|
A|--3---|
E|------|

End:
   F5  G#5 D#5 C5  F5   F5  
e|-------------------------|
B|-------------------------|
G|-10--6---8-------10------|
D|-10--6---8---10--10---3--|
A|-8---4---6---10--8----3--|  
E|-------------8--------1--|


Order:

Intro Riff x4
Main Riff x2
Verse x2 
Chorus
Intro Riff x2
Verse x2
Chorus
Bridge
Solo
Interlude
Chorus x2 (Hold last C5)
Main Riff x3
End


Lyrics:

Say! Hey!

Hear the sound of the falling rain
Coming down like an Armageddon flame (Hey!)             (Verse 1)
The shame, the ones who die without a name

Hear the dogs howling out of key
To a hymn called "Faith and Misery" (Hey!)                (Verse 2)
And bleed, the company lost the war today

I beg to dream and differ from the hollow lies
This is the dawning of the rest of our lives            (Chorus)
On holiday

There's a drum pounding out of time
Another protestor has crossed the line (Hey!)           (Verse 3)
To find, the money's on the other side

Can I get another Amen?  (Amen!)
There's a flag wrapped around the score of men (Hey!)   (Verse 4)
A gag, A plastic bag on a monument

(Chorus)
(Bridge)

The representative from California has the floor:
"Zieg Heil!" to the president gasman
"Bombs away!" is your punishment
Pulverize the Eiffel Towers
Who criticize your government                               (Interlude)
"Bang Bang!" goes the broken glass man 
Kill all the fags that don't agree
Triumph by fire setting fire
Is not a way that's meant for me 
Just cause... just cause - because we're outlaws yeah!

I beg to dream and differ from the hollow lies
This is the dawning of the rest of our lives            
I beg to dream and differ from the hollow lies
This is the dawning of the rest of our lives
This is our lives on holiday


************************************************************
------------------------------------------------------------
Track 4: Boulevard of Broken Dreams
------------------------------------------------------------


Riff 1:                   
e|-----------------------|
B|--8-9---9/13-11---8-9--|
G|-----------------------|
D|-----------------------|
A|-----------------------|
E|-----------------------|

Riff 2:                         x3
e|------------------------------|
B|-------8-9---9/13-11---8-9--9-|
G|-10-10------------------------|
D|------------------------------|
A|------------------------------|
E|------------------------------|

e|---------------------------------------|
B|--------8-9--9/13-11-13-13-13-13-13-13-|
G|-10-10---------------------------------|
D|---------------------------------------|
A|---------------------------------------|
E|---------------------------------------|

e|---------------------------------------|
B|-13-13-13-13-13-13-13------------------|
G|---------------------------------------|
D|---------------------------------------|
A|---------------------------------------|
E|---------------------------------------|

Verse:

The verse chords on the album are actually played with a 
capo on the first fret as open chords (Em G D A), but 
they're tabbed here for use without a capo.

    Fm   G#   D#   A#     A# A# C5 <- Played over the end of 
e|--1----4----6----6---|------------|  the last repitition before
B|--1----4----8----6---|------------|    chorus (distored).
G|--1----5----8----7---|--3--3--5---|
D|--3----6----8----8---|--3--3--5---|
A|--3----6----6----8---|--1--1--3---|
E|--1----4---------6---|------------|
                         (I walk a-)
Chorus:
    C#5  G#5  D#5  F5  x3  C#5  G#5  C5
e|---------------------------------------|
B|---------------------------------------|
G|--6---------8------------6---------5---|
D|--6----6----8----3-------6----6----5---|
A|--4----6----6----3-------4----6----3---|
E|-------4---------1------------4--------|

Outro:
Guitar 1                                                  x3
e|--------------------------------------------------------|
B|--------------------------------------------------------|
G|--------------------------------------------------------|
D|--------------------------------------------------------|
A|---------4--4--4--6--6--6--5--5--5----------------------|
E|-1--1--1-----------------------------4--4--4--0--0--0---|

Guitar 2 (strum fast)                                     x3
e|--------------------------------------------------------|
B|-------------------------------------16-16-16-17-17-17--|
G|-10-10-10-10-10-10-10-10-10-10-10-10-13-13-13-xx-xx-xx--|
D|-x--x--x--x--x--x--x--x--x--x--x--x-----------14-14-14--|
A|-8--8--8--8--8--8--8--8--8--8--8--8---------------------|
E|--------------------------------------------------------|

Guitar 1
e|-------------------------------------------------|
B|-------------------------------------------------|
G|-------------------------------------------------|
D|-------------------------------------6--6--2--2--|
A|---------4--4--4--6--6--6--5--5--5---6--6--2--2--|
E|-1--1--1-----------------------------4--4--0--0--|

Guitar 2 (strum fast)                                
e|--------------------------------------------------|
B|-------------------------------------16-16-17-17--|
G|-10-10-10-10-10-10-10-10-10-10-10-10-13-13-xx-xx--|
D|-x--x--x--x--x--x--x--x--x--x--x--x--------14-14--|
A|-8--8--8--8--8--8--8--8--8--8--8--8---------------|
E|--------------------------------------------------|

Order:

Verse (2x alone, 1x w/Riff 1)
Verse (2x alone, 2x w/Riff 1)
Chorus
Verse (4x alone, 1x w/Riff 1)
Verse (2x alone, 2x w/Riff 1)
Chorus
Verse x2
Chorus (w/Riff 2)
Verse x2
Chorus (w/end of Riff 2 after 2nd repeat)
Outro

Lyrics:


I walk a lonely road
The only one I that have ever known
Don't know were it goes
But its home to me and I walk alone

I walk this empty street
On the boulevard of broken dreams
Where the city sleeps
And I'm the only one and I walk alone
I walk alone I walk alone
I walk alone I walk a-

My shadows the only one that walks beside me
My shallow heart's the only thing that's beating
Sometimes I wish someone out there will find me
Till then I'll walk alone

I'm walking down the line
That divides me somewhere in my mind
On the border line of the edge
And were I walk alone

Read between the lines of what's
Fucked up and every things all right
Check my vital signs to know I'm still alive
And I walk alone
I walk alone I walk alone
I walk alone I walk a-

My shadows the only one that walks beside me
My shallow hearts the only thing that's beating
Sometimes I wish someone out there will find me
Till then I'll walk alone

I walk this empty street
On the boulevard of broken dreams
Where the city sleeps
And I'm the only one and I walk a-

My shadows the only one that walks beside me
My shallow hearts the only thing that's beating
Sometimes I wish someone out there will find me
Till then I'll walk alone


************************************************************
------------------------------------------------------------
Track 5: Are We The Waiting
------------------------------------------------------------

The song is mostly just arpeggios, it's very simple.

Throughout the whole song, another guitar strums the chord
once while the main guitar goes through the arppeggios.

Main Riff (Intro/Verse/Chorus):
   A                         D
e|---------------------------------2-----------2-------|
B|-------2-----------2-----------3---3-------3---3-----|
G|-----2---2-------2---2-------2-------2---2-------2---|
D|---2-------2---2-------2---0-----------0-------------|
A|-0-----------0---------------------------------------|
E|-----------------------------------------------------|

Pre-Chorus:
(This dirty town, is burnin' down, in my dreams)
   Fm                 E             D                         
e|------------------------------------------------------------|
B|---------11---------------9------/7-----7-----------7-------|
G|------10----10----------9---9----/7---7---7-------7---7-----|
D|---10----------10-----9-------9-----7-------7---7-------7---|
A|-9------------------7-------------------------5-------------|
E|------------------------------------------------------------|
                                    ^This slide is actually played by 
                                       the second guitar, but you can play
                                         it with one.
Order:

Intro:

Intro (Main Riff x1)
Verse (Main Riff x3)
Pre-Chorus x2
Chorus (Main Riff x2)
Verse (Main Riff x3)
Pre-Chorus x2
Outro (Main Riff x5)

Lyrics:

Starry nights city lights
Coming down over me                             (Verse 1)
Skyscrapers and stargazers                      
In my head
Are we we are, Are we we are
The waiting unknown

This dirty town was burning down in my dreams   (Pre-Chorus)
Lost and found city bound in my dreams

And screaming
Are we we are, Are we we are the waiting        (Chorus)
And screaming
Are we we are, Are we we are the waiting

Forget me nots and second thoughts
Live in isolation
Heads or tails and fairytales                   (Verse 2)
In my mind
Are we we are, Are we we are 
The waiting unknown

The rage and love, the story of my life         (Pre-Chorus)
The Jesus of suburbia is a lie

And screaming
Are we we are, Are we we are the waiting 
And screaming
Are we we are, Are we we are the waiting
                                                (Outro)
Are we we are, Are we we are the waiting 
And screaming
Are we we are, Are we we are the waiting

Are we we are, Are we we are the waiting 


************************************************************
------------------------------------------------------------
Track 6: St. Jimmy
------------------------------------------------------------

Intro:
Second guitar is palm muting the open A string.
   A5       D5 A5  x4    D5     E5 D5
e|-------------------------------------|
B|-------------------------------------|
G|----------7------------7------9--7---|
D|-7--------7--7---------7------9--7---|
A|-7--------5--7---------5------7--5---|
E|-5-----------5-----------------------|

Verse:
   A5   D5   E5   A5  x6
e|--------------------|
B|--------------------|
G|------7----9--------|
D|-7----7----9----7---|
A|-7----5----7----7---|
E|-5--------------5---|

Chorus:
   D5      A5      D5      E5  
e|-----------------------------|
B|-----------------------------|
G|-7---------------7-------9---|
D|-7-------7-------7-------9---|
A|-5-------7-------5-------7---|
E|---------5-------------------|

Interlude:
   A5    D5 A5 D5 E5  x4
e|--------------------|
B|--------------------|
G|-------7-----7--9---|
D|-7-----7--7--7--9---|
A|-7-----5--7--5--7---|
E|-5--------5---------|

   A5   E5   C5   D#5 x4
e|--------------------|
B|--------------------|
G|------9----5----8---|
D|-7----9----5----8---|
A|-7----7----3----6---|
E|-5------------------|

   A5        D5        E5        A5
e|---------------------------------------------|
B|---------------------------------------------|
G|-----------7-7-7-7---9-9-9-9---14-14-14-14---|
D|-7-7-7-7---7-7-7-7---9-9-9-9---14-14-14-14---|
A|-7-7-7-7---5-5-5-5---7-7-7-7---12-12-12-12---|
E|-5-5-5-5-------------------------------------|

   A5            D5        E5           
e|---------------------------------------------------|
B|---------------------------------------------------|
G|-14-14-14-14---7-7-7-7---9-9-9-9-9-9-9-9-9-9-9-9-9-|
D|-14-14-14-14---7-7-7-7---9-9-9-9-9-9-9-9-9-9-9-9-9-|
A|-12-12-12-12---5-5-5-5---7-7-7-7-7-7-7-7-7-7-7-7-7-|
E|---------------------------------------------------|

Bridge:
   A5       D5       G5   D5   A5  x5
e|---------------------------------|
B|---------------------------------|
G|----------7-------------7--------|
D|-7--------7--------5----7----7---|
A|-7--------5--------5----5----7---|
E|-5-----------------3---------5---|

Behind the first repitition of the bridge is a second guitar
playing this:
   A5             D5             G5    D5     A5  (<--Guitar 1)
e|-----------------------------------------------------12-12--|
B|------------------------------------------------------------|
G|-9-9-9-9-9-9-9--7-7-7-7-7-7-7--7/12--12/11--14-14-14--------|
D|------------------------------------------------------------|
A|------------------------------------------------------------|
E|------------------------------------------------------------|

End:
   A5   A5   D5      E5   E5   A5  x2
e|---------------------------------|
B|---------------------------------|
G|-----------7-------9----9--------|
D|-7----7----7-------9----9----7---|
A|-7----7----5-------7----7----7---|
E|-5----5----------------------5---|

   A5 A5 A5 A5  
e|--------------|
B|--------------|
G|--------------|
D|-7--7--7--7---|
A|-7--7--7--7---|
E|-5--5--5--5---|

Order:
Intro
Verse
Chorus
Verse
Chorus
Interlude
Bridge
End

Lyrics:

St. Jimmy's comin' down across the alleyway
Up on the boulevard like a zipgun on parade
Light of a sillohette                                   (Intro)
He's insubordinate
Coming at you on account of One Two
One Two Three Four!

My name is Jimmy and you better not wear it out
Suicide commando that your momma talked about           (Verse 1)
King of the forty theives and I'm here to represent
The needle in the vein of the establishment

I'm the patron saint of the denial              
With an angel face and a taste for suicidal             (Chorus)

Cigarettes and ramen and a little bag of dope 
I am the son of a bitch and Edgar Allen Poe             
Raised in the city under a halo of lights               (Verse 2)
The product of war and fear that we've been victimized

I'm the patron saint of the denial
With an angel face and a taste for suicidal             (Chorus)

You talkin' to me?
I'll give you something to cry about.                   (Interlude)
ST. JIMMY

My name is St. Jimmy I'm a son of a gun
I am the one that's from the way outside now
A teenage assasin executing some fun
In the cult of the life of crime now
                                                        (Bridge)
I'd really hate to say it but I told you so
So shut your mouth before I shoot you down old boy
Welcome to the club and give me some blood
I'm the resident leader at the lost and found

It's comedy and tragedy
It's St. Jimmy                                          (End)
And that's my name
...and don't wear it out!


************************************************************
------------------------------------------------------------
Track 7: Give Me Novacaine
------------------------------------------------------------


All chords are played as barre chords.  There are two
guitars strumming all acoustic parts, and they both 
play the chords on different parts of the neck,
so it doesn't really matter if you play the E open
or at the 7th fret, or the F#m at the 2nd or 9th.

Intro: A F#m Bm E

A                       F#m 
Take away the sensation inside
Bm                          E
Bitter sweet migraine in my head
A                                      F#m
It's like a throbbing toothache of the mind
Bm                       E
I cant take this feeling anymore

D                           A
Drain the pressure from the swelling
D                    A    
This sensation's overwhelming
D                                 F#m        
Give me a long kiss goodnight and everything will be alright
Bm                    E
Tell me I wont feel a thing
               A F#m Bm E       
So give me Novacaine

A                      F#m
Out of body and out of mind
Bm                        E
Kiss the demons out of my dreams
A                        F#m
I get the funny feeling, that's alright
Bm                         E
Jimmy says its better than here
 
I'll tell you why

D                           A
Drain the pressure from the swelling
D                  A    
The sensations overwhelming
D                            F#m        
Give me a kiss goodnight and everything will be alright
Bm                         E
tell me that i wont feel a thing
               A        
So give me Novacaine

Oh Novacaine

Bridge:
Guitar 1 plays the chords while guitar 2 plays 
what's tabbed underneath.

   F#m                        A5                               x3
e|-------------------------------------------------------------|
B|---------------9-10-10-9--------------------14---------------|
G|----------11-------------11------------14-------14-------14--|
D|----11-11----11-----------------14-14-----14-------14-14-----|
A|-/9-------------------------/12------------------------------|
E|-------------------------------------------------------------|

   Bm                    E                      
e|-----------------------------------------------------------|
B|----------3---3--------9-9-9-9--10101010-1212121212121212--|
G|------4-----4---4------9-9-9-9--9-9-9-9--9-9-9-9-9-9-9-9---|
D|----4---4---------4----------------------------------------|
A|-/2--------------------------------------------------------|
E|-----------------------------------------------------------|
                         
                         
D                           A
Drain the pressure from the swelling
D                  A    
The sensations overwhelming
D                            F#m        
Give me a kiss goodnight and everything will be alright
Bm                         E
Tell me that I wont feel a thing
               A F#m Bm E       
So give me Novocain

A F#m B E 

There's also a slide guitar part that plays in 
the background periodically.  It's:

e|----------------------------------------|
B|----10----107----7/12----125----5/----|
G|----------------------------------------|


************************************************************
------------------------------------------------------------
Track 8: She's A Rebel
------------------------------------------------------------


Riff 1:
   G5      G5      G5      D5  C5   x2
e|----------------------------------|
B|----------------------------------|
G|-------------------------7---5----|
D|-5-------5-------5-------7---5----|
A|-5-------5-------5-------5---3----|
E|-3-------3-------3----------------|

Riff 2:
   G5  C5  G5  C5  G5  C5  D5  C5   x2
e|----------------------------------|
B|----------------------------------|
G|-----5-------5-------5---7---5----|
D|-5---5---5---5---5---5---7---5----|
A|-5---3---5---3---5---3---5---3----|
E|-3-------3-------3----------------|

Chorus                                                      
   Em      Bm      C5      G5      Em  Bm  C5      G5      D5 
e|--------------------------------------------------------------|
B|-6-------7-----------------------6---7---13-------------------|
G|-9-------8-------5---------------9---8---12------12-----------|
D|-9-------9-------5-------5-------9---9---10------12------12---|
A|-7-------9-------3-------5-------7---9-----------10------12---|
E|---------7---------------3-----------7-------------------10---|
                                                
   B5   A5   C5     G5  D5
e|---------------------------|
B|---------------------------|
G|------------------12-------|
D|-9-9--7-7--1010---12--12---|
A|-9-9--7-7--1010---10--12---|
E|-7-7--5-5--8-8--------10---|
  (Well nothing comes to mind)

Bridge:
Guitar 1 plays Riff 2
      G5       C5       G5       C5       G5       C5       D5       C5          x2
e|-------------------------------------------------------------------------------|
B|-------------------------------------------------------------------------------|
G|-xx-12-12-xx-12-12-xx-12-12-xx-12-12-xx-12-12-xx-12-12-xx-14-14-14-14-16-17-16-|
D|-xx-12-12-xx-10-10-xx-12-12-xx-10-10-xx-12-12-xx-10-10-xx----------------------|
A|-------------------------------------------------------------------------------|
E|-------------------------------------------------------------------------------|
                                 Leave last note out on second repeat

Order:
Verse 1 (Riff 1)
Verse 2 (Riff 2)
Riff 2
Verse 3 (Riff 2)
Chorus
Bridge
Chorus
Verse 1 (Riff 1)
Verse 1 (Riff 2)
Bridge
End on G5


Lyrics:

She's a rebel
She's a saint                   
She's the salt of the earth
And she's dangerous             (Verse 1)
She's a rebel
Vigilante                       
Missing link on the brink       
Of destruction

From Chicago 
To Toronto                      
She's the one that they
Call old Whatsername            (Verse 2)
She's the symbol
Of resistance                   
And she's holding on my
Heart like a hand grenade

Is she dreaming
What I'm thinking?
Is she the mother of all bombs  
Gonna detonate                  (Verse 3)
Is she trouble                  
Like I'm trouble?
Make it a double                
Twist of fate
Or a melody that

She sings the revolution
The dawning of our lives
She brings this liberation      (Chorus)
That I just cant define
Well nothing comes to mind

(Bridge)
(Chorus)
(Verse 1) x2

She's a rebel
She's a rebel                   
She's a rebel           
And she's dangerous             (Bridge)
She's a rebel
She's a rebel                   
She's a rebel
And she's dangerous


************************************************************
------------------------------------------------------------
Track 9: Extraordinary Girl
------------------------------------------------------------

Verse (two guitars):
                                  (She's an extraordinary girl)
                                  (She sees the mirror of herself)
   A       Dm      A       Dm      A       Dm       
e|---------1-1-111---------1-1-111---------1-1-111---|              
B|-2-2-222-3-3-333-2-2-222-3-3-333-2-2-222-3-3-333---|
G|-2-2-222-2-2-222-2-2-222-2-2-222-2-2-222-2-2-222---|
D|-2-2-222-0-0-000-2-2-222-0-0-000-2-2-222-0-0-000---|
A|---------------------------------------------------|
E|---------------------------------------------------|

e|---------------------------------------------------|
B|---------6---8-6---------6---8-6-------------------|
G|-9---7-9---------9---7-9---------9-----------------|
D|---------------------------------------------------|
A|---------------------------------------------------|
E|---------------------------------------------------|

   A       Dm      A       G       A      
e|---------1-1-111-----------------------------------|
B|-2-2-222-3-3-333-2-2-222-0-0-000-2--22--22-2-222---|
G|-2-2-222-2-2-222-2-2-222-0-0-000-2--22--22-2-222---|
D|-2-2-222-0-0-000-2-2-222-0-0-000-2--22--22-2-222---|
A|-------------------------2-2-222-------------------|
E|-------------------------3-3-333-------------------|

e|---------------------------------------------------|
B|---------------------------------------------------|
G|---------------------------------6--46--46-7-646---|
D|---------------------------------------------------|
A|---------------------------------------------------|
E|---------------------------------------------------|

   (He lacks the courage in his mind)
   (He steals the image in her kiss)
   A       Dm      A       Dm      A       G       
e|---------1-1-111---------1-1-111-------------------|
B|-2-2-222-3-3-333-2-2-222-3-3-333-2-2-222-0-0-000---|
G|-2-2-222-2-2-222-2-2-222-2-2-222-2-2-222-0-0-000---|
D|-2-2-222-0-0-000-2-2-222-0-0-000-2-2-222-0-0-000---|
A|-----------------------------------------2-2-222---|
E|-----------------------------------------3-3-333---|

e|---------------------------------------------------|
B|---------6---8-6---------6---8-6-------------------|
G|-9---7-9---------9---7-9---------9---9---7---9-7---|
D|---------------------------------------------------|
A|---------------------------------------------------|
E|---------------------------------------------------|
   A
e|-------------------|
B|-2--22--22-2-222---|
G|-2--22--22-2-222---|
D|-2--22--22-2-222---|
A|-------------------|
E|-------------------|

e|-------------------|
B|-------------------|
G|-6--46--46-7-646---|
D|-------------------|
A|-------------------|
E|-------------------|



Chorus (one guitar):

(She's all alone again...)
   F#5   E5   D5      E5     A5    E5/B D5      E5
e|----------------------------5----------------------|
B|-----------------------------5---------------------|
G|------------7-7-7---9-9-------6--9-9--7-7-7---9-9--|
D|-4-44--2-2--7-7-7---9-9----7-----9-9--7-7-7---9-9--|
A|-4-44--2-2--5-5-5---7-7----7-----7-7--5-5-5---7-7--|
E|-2-22--0-0-----------------5-----7-7---------------|

                      (She gets so sick of cryin'...)
    D5        E5       D5       F5
e|----------------------------------|
B|----------------------------------|
G|-7-7-777---9-9-999---7--------10--|
D|-7-7-777---9-9-999---7--------10--|
A|-5-5-555---7-7-777---5--------8---|
E|----------------------------------|



Bridge (played twice):
   A       Dm      A       Dm      A       G       
e|---------1-1-111---------1-1-111-------------------|
B|-2-2-222-3-3-333-2-2-222-3-3-333-2-2-222-0-0-000---|
G|-2-2-222-2-2-222-2-2-222-2-2-222-2-2-222-0-0-000---|
D|-2-2-222-0-0-000-2-2-222-0-0-000-2-2-222-0-0-000---|
A|-----------------------------------------2-2-222---|
E|-----------------------------------------3-3-333---|

e|---------------------------------------------------|
B|---------6---8-6---------6---8-6-------------------|
G|-9---7-9---------9---7-9---------9--9-10-7---9-7---|
D|---------------------------------------------------|
A|---------------------------------------------------|
E|---------------------------------------------------|
   A
e|-------------------|
B|-2--22--22-2-222---|
G|-2--22--22-2-222---|
D|-2--22--22-2-222---|
A|-------------------|
E|-------------------|

e|-------------------|
B|-------------------|
G|-6--46--46-7-646---|
D|-------------------|
A|-------------------|
E|-------------------|



End chorus (one guitar):

(She's all alone again...)
   F#5   E5   D5      E5     A5    E5/B D5      E5
e|----------------------------5----------------------|
B|-----------------------------5---------------------|
G|------------7-7-7---9-9-------6--9-9--7-7-7---9-9--|
D|-4-44--2-2--7-7-7---9-9----7-----9-9--7-7-7---9-9--|
A|-4-44--2-2--5-5-5---7-7----7-----7-7--5-5-5---7-7--|
E|-2-22--0-0-----------------5-----7-7---------------|

                          (She gets so sick of cryin'...)
    D5        E5     x3    D5       F5
e|--------------------------------------|
B|--------------------------------------|
G|-7-7-777---9-9-999-------7--------10--|
D|-7-7-777---9-9-999-------7--------10--|
A|-5-5-555---7-7-777-------5--------8---|
E|--------------------------------------|



End:
   A       Dm      A       Dm      A       Dm      
e|---------1-1-111---------1-1-111---------1-1-111-|
B|-2-2-222-3-3-333-2-2-222-3-3-333-2-2-222-3-3-333-|
G|-2-2-222-2-2-222-2-2-222-2-2-222-2-2-222-2-2-222-|
D|-2-2-222-0-0-000-2-2-222-0-0-000-2-2-222-0-0-000-|
A|-------------------------------------------------|
E|-------------------------------------------------|

e|-------------------------------------------------|
B|---------6---8-6---------6---8-6---------6---8-6-|
G|-9---7-9---------9---7-9---------9---7-9---------|
D|-------------------------------------------------|
A|-------------------------------------------------|
E|-------------------------------------------------|

   A       Dm      A (hold)
e|---------1-1-111----|
B|-2-2-222-3-3-333-2--|
G|-2-2-222-2-2-222-2--|
D|-2-2-222-0-0-000-2--|
A|--------------------|
E|--------------------|

e|--------------------|
B|---------6---8-6----|
G|-9---7-9---------9--|
D|--------------------|
A|--------------------|
E|--------------------|

Order:

Verse
Chorus
Verse
Chorus
Bridge
End Chorus
End

Lyrics:

She's an Extraordinary girl
In an ordinary world                    (Verse)
And she cant seem to get away

He lacks the courage in his mind
Like a child left behind                (Verse)
Like a pet left in the rain

She's all alone again
Wiping the tears from her eyes
Some days he feels like dying           (Chorus)
She gets so sick of crying

She sees the mirror of herself
An image she wants to sell              (Verse)
To anyone willing to buy

He steals the image in her kiss
From her heart's apocalypse             (Verse)
From the one called Whatsername 

(Chorus)
(Bridge)

She's all alone again
Wiping the tears from her eyes
Some days he feels like dying           (End Chorus)
Some days it's not worth trying
Now that they both are finding
She gets so sick of crying

She's an extraordinary girl
An extraordinary girl
An extraordinary girl                   (End)
An extraordinary girl


************************************************************
------------------------------------------------------------
Track 10: Letterbomb
------------------------------------------------------------


This song is tabbed out straight through.

e|------------------------------------------------------|
B|------------------------------------------------------|
G|-9-9-9-9-9-9-9-9--9-9-9-9-9-9-9-9--9-9-9-9-9-9-9-9----|
D|------------------------------------------------------|
A|-7-7-7-7-7-7-7-7--7-7-7-7-7-7-7-7--7-7-7-7-7-7-7-7----|
E|------------------------------------------------------|

e|------------------------------------------------------|
B|------------------------------------------------------|
G|-8-8-8-8-8-8-8-8--9-9-9-9-9-9-9-9--9-9-9-9-9-9-9-9----|
D|------------------------------------------------------|
A|-6-6-6-6-6-6-6-6--7-7-7-7-7-7-7-7--7-7-7-7-7-7-7-7----|
E|------------------------------------------------------|

    E5     G#5    C#5    A
e|---------------------------|
B|---------------------------|
G|----------------6----------| 
D|--2------6------6------7---|
A|--2------6------4------7---|
E|--0------4-------------5---|


(Where have all the bastards gone...)
   E5 (PM) A5   F#5 A5  E          G#5 C#5 G#5 C#5 A5 E5        
e|-------------------------------------------------------|
B|-------------------------------------------------------|
G|----------------------11-22-11-------6-------6---------|
D|-2-------7----4---7---22-22-22---6---6---6---6---7--4--|
A|-2-------7----4---7---22-22-22---6---4---6---4---7--4--|
E|-0-------5----2---5---00-00-00---4-------4-------5--2--|

    B5      B5  
e|-------------|
B|-------------|
G|-------------|
D|--9--7/8--9--|
A|--9--7/8--9--|
E|--7--5/6--7--|


(Where have all the riots gone...)
    E5 (PM)A5   F#5 A5  E          G#5 C#5 G#5 C#5 A5 E5   
e|-------------------------------------------------------|
B|-------------------------------------------------------|
G|----------------------11-22-11-------6-------6---------|
D|-2-------7----4---7---22-22-22---6---6---6---6---7--4--|
A|-2-------7----4---7---22-22-22---6---4---6---4---7--4--|
E|-0-------5----2---5---00-00-00---4-------4-------5--2--|

    B5                  
e|------------------------------------|
B|------------------------------------|
G|------------------------------------|
D|-9--7/8--999---7/8--999---7/8--999--|
A|-9--7/8--999---7/8--999---7/8--999--|
E|-7--5/6--777---5/6--777---5/6--777--|
 
 
(The television's an obstructionist...)
   A5                        B5          
e|----------------------------------------------------|
B|----------------------------------------------------|
G|----------------------------------------------------|
D|--77777-6/7-77777--6/9-99999--7/9-9999-7/9-99-7/9---|
A|--77777-6/7-77777--6/9-99999--7/9-9999-7/9-99-7/9---|
E|--55555-4/5-55555--4/7-77777--5/7-7777-5/7-77-5/7---|
                         
            
(It's not over till you're underground...)
   E5  B5  A5      E5  B5  A5  
e|-----------------------------|
B|-----------------------------|
G|-9---------------9-----------|
D|-9---9---7-------9---9---7---|
A|-7---9---7-------7---9---7---|
E|-----7---5-----------7---5---|

   E5  B5  A5 F5   E5  B5  A5   
e|-----------------------------|
B|-----------------------------|
G|-9----------10---9-----------|
D|-9---9---7--10---9---9---7---|
A|-7---9---7--8----7---9---7---|
E|-----7---5--8--------7---5---|

(Well there is nothing left to analyze...)
   F#5     A
e|-------------|
B|-------------|
G|-------------|
D|--4------7---|
A|--4------7---|
E|--2------5---|


Guitar 1                           (Where will all the...)
e|------------------------------------------------------|
B|------------------------------------------------------|
G|-9-9-9-9-9-9-9-9--9-9-9-9-9-9-9-9--9-9-9-9-9-9-9-9----| 
D|------------------------------------------------------|
A|-7-7-7-7-7-7-7-7--7-7-7-7-7-7-7-7--7-7-7-7-7-7-7-7----|
E|------------------------------------------------------|

Guitar 2
e|------------------------------------------------------|
B|-----------------------------------9-----9-----9------|
G|--------------------------------------9-----9----9----|
D|------------------------------------------------------|
A|------------------------------------------------------|
E|------------------------------------------------------|

Guitar 1
e|------------------------------------------------------|
B|------------------------------------------------------|
G|-8-8-8-8-8-8-8-8--9-9-8-4-4-6-6-8--9-9-8-9-9----------|
D|------------------------------------------------------|
A|-6-6-6-6-6-6-6-6--7-7-6-2-2-4-4-6--7-7-6-7-7----------|
E|---------------------------------------------/////////|
                                               ^pick-slide
Guitar 2
e|------------------------------------------------------|
B|-7-----7-----7----9-----9-----9----10----10----10-----|
G|----8-----8----8-----9-----9----9-----9-----9----9----|
D|------------------------------------------------------|
A|------------------------------------------------------|
E|------------------------------------------------------|



    E5              G#5             C#5       A      
e|------------------------------------------------------|
B|------------------------------------------------------|
G|----------------------------------6-------------------| 
D|--2---------------6---------------6---------7---------|
A|--2---------------6---------------4---------7---------|
E|--0---------------4-------------------------5---------|   


  
Guitar 1                          (Well don't look back...)
    E5              G#5               
e|------------------------------------------------------|
B|------------------------------------------------------|
G|----------------------------------9-8-4-8--9-8-4-4----| 
D|--2---------------6-----------------------------------|
A|--2---------------6---------------7-6-2-6--7-6-2-2----|
E|--0---------------4-----------------------------------|

Guitar 2
e|------------------------------------------------------|
B|------------------------------------------------------|
G|-9---9---9---9-9--8-8-8h9p8-8-6-4---------------------|
D|---9---9---9--9---------------------------------------|
A|------------------------------------------------------|
E|------------------------------------------------------|



(You're not the Jesus of Suburbia...)
    B5                  A5      B5
e|-------------------------------------------------|
B|-------------------------------------------------|
G|-------------------------------------------------|
D|--9-7/9-99--7/9-99--6/7-77--6/9-99--7/9-9-7/9----|
A|--9-7/9-99--7/9-99--6/7-77--6/9-99--7/9-9-7/9----|
E|--7-5/7-77--5/7-77--4/5-55--4/7-77--5/7-7-5/7----|
                                             
                                
(It's not over till you're underground...)
   E5  B5  A5      E5  B5  A5  
e|-----------------------------|
B|-----------------------------|
G|-9---------------9-----------|
D|-9---9---7-------9---9---7---|
A|-7---9---7-------7---9---7---|
E|-----7---5-----------7---5---|

   E5  B5  A5 F5   E5  B5  A5   
e|-----------------------------|
B|-----------------------------|
G|-9----------10---9-----------|
D|-9---9---7--10---9---9---7---|
A|-7---9---7--8----7---9---7---|
E|-----7---5--8--------7---5---| 


(She said I can't take this place...)
    E5     G#5    C#5    A
e|---------------------------|
B|---------------------------|
G|----------------6----------| 
D|--2------6------6------7---|
A|--2------6------4------7---|
E|--0------4-------------5---|

(Well she said I can't take this town...)
    E5     G#5    C#5    A
e|---------------------------|
B|---------------------------|
G|----------------6----------| 
D|--2------6------6------7---|
A|--2------6------4------7---|
E|--0------4-------------5---|



Guitar 1
e|------------------------------------------------------|
B|------------------------------------------------------|
G|------------------------------------------------------|
D|-2------22-------2--------22------2------22--------2--|
A|-2------22-------2--------22------2------22--------2--|
E|-0------00-------0--------00------0------00--------0--|
                                                     (let ring)
Guitar 2
e|------------------------------------------------------|
B|------------------------------------------------------|
G|-9-9-9-9-9-9-9-9-9-9-9-9-9-9-9-9-9-9-9-9-9-9-9-9-9-9--|
D|------------------------------------------------------|
A|-7-7-7-7-7-7-7-7-7-7-7-7-7-7-7-7-7-7-7-7-7-7-7-7-7-7--|
E|------------------------------------------------------|
                                                     (let ring)

Lyrics: 

No body likes you
Everyone left you
They're all out without you
Having fun

Where have all the bastards gone?
The underbelly stacks up ten high
The dummy failed the crash test
Collecting unemployment checks
Like a flunkie only along for the ride

Where have all the riots gone?
As the city's motto gets pulverized
"What's in love is now in debt"
On your birth certificate
So strike the fucking match to light this fuse

The town bishop is an extortionist
And he don't even know that you exist.
Standin' still when it's do or die
You better run for your fucking life

It's not over 'till you're underground
It's not over before it's too late
This city's burning.  "It's not my burden"
It's not over before it's too late

There is nothing left to analyze

Where will all the martyrs go when the virus cures itself?
And where we will all go when it's too late?

Well don't look back

You're not the Jesus of Suburbia
The St. Jimmy is a figment of
Your father's rage and your mother's love
Made me the idiot America

It's not over 'till you're underground
It's not over before it's too late
This city's burning.  "It's not my burden"
It's not over before it's too late

She said, "I can't take this place
I'm leaving it behind."
Well she said, "I can't take this town 
I'm leaving you tonight."


************************************************************
------------------------------------------------------------
Track 11: Wake Me Up When September Ends
------------------------------------------------------------


Intro:
e|---------------------------------------------------------|
B|------3-----3-------3-----3-------3-----3-------3-----3--|
G|----0-----0-------0-----0-------0-----0-------0-----0----|
D|--5-----5-------5-----5-------5-----5-------5-----5------|
A|---------------------------------------------------------|
E|---------------------------------------------------------|


Riff 1: 
e|---------------------------------------------------------|
B|------3-----3-------3-----3-------3-----3-------3-----3--|
G|----0-----0-------0-----0-------0-----0-------0-----0----|
D|--5-----5-------4-----4-------2-----2-------0-----0------|
A|---------------------------------------------------------|
E|---------------------------------------------------------|
                                   
e|------3-----3-------3-----3----|
B|------5-----5-------4-----4----|
G|----5-----5---5---5-----5---5--|
D|--5-----5-------5-----5--------|
A|-------------------------------|
E|-------------------------------|
 
Ending 1:                 
e|------------------------------|
B|------3-----3-------3-----3---|
G|----0-----0---0---0-----0---0-|
D|--5-----5-------5-----5-------|
A|------------------------------|
E|------------------------------|
 
Ending 2:                       
e|-----------------------------------|
B|------3-----3-------3-------3------|
G|----0-----0---0---0---0---0--0-----|
D|--5-----5-------5-------4----------|
A|-----------------------------------|
E|-----------------------------------|


Riff 2:         
e|------------------------------------------------------------|
B|------3-----3-------3-----3-------3-----3-------3-------3---|
G|----0-----0---0---0-----0---0---0-----0---0---0---0---0--0--|
D|--2-----2-----------------------------------5-------4-------|
A|----------------2-----2-------3-----3-----------------------|
E|------------------------------------------------------------|

e|------------------------------------------------------------|
B|------3-----3-------3-----3-------3-----3-------3-----3-----|
G|----0-----0---0---0-----0---0---0-----0-------0-----0---0---|
D|--2-----2-----------------------------------0-----0---------|
A|----------------2-----2-------3-----3-----------------------|
E|------------------------------------------------------------|


Riff 3:
e|---------------------------------------------------------|
B|------3-----3-------3-----3-------3-----3---
Calificar esta versión:
Aviso: Este fichero es trabajo propio de su transcriptor y representa su interpretación personal de la canción. El material contenido en esta página es para exclusivo uso privado, por lo que se prohibe su reproducción o retransmisión, así como su uso para fines comerciales.