16, Green Day (tablatura)

Autor: <--manu--> | 28554 visualizaciones

Intro/Verse
e|---------------------------------------------------------------------------|
B|---------------------------------------------------------------------------|
G|-4-4-4-4---------9-9-9-9---------------------------------------------------|
D|-4-4-4-4-7-7-7-7-9-9-9-9-9-9-9-9-------------------------------------------|
A|-2-2-2-2-7-7-7-7-7-7-7-7-9-9-9-9-------------------------------------------|
E|---------5-5-5-5---------7-7-7-7-------------------------------------------|
Chorus
e|---------------------------------------------------------------------------|
B|---------------------------------------------------------------------------|
G|-5-5-5-5-5-7-7-7-7-7-------------------------------------------------------|
D|-5-5-5-5-5-7-7-7-7-7-9-9-9-9-9---------------------------------------------|
A|-3-3-3-3-3-5-5-5-5-5-9-9-9-9-9---------------------------------------------|
E|---------------------7-7-7-7-7---------------------------------------------|
Calificar esta versión:
Aviso: Este fichero es trabajo propio de su transcriptor y representa su interpretación personal de la canción. El material contenido en esta página es para exclusivo uso privado, por lo que se prohibe su reproducción o retransmisión, así como su uso para fines comerciales.