Summer Nights, Grease (bajo)

Autor: A.JaZmIn | 19195 visualizaciones

INTRO/CORO
G/------------------------------4-/
D/-0-0-5-5-7-7-5-7-5-0-0-5-5-7-7--/
A/--------------------------------/
E/--------------------------------/

PRE-CORO
G/-------------------------------------------/--------/
D/---------7-76-67---------55-77-44-55-77-00-/--------/
A/----5-7-7----7-------45-5------------------/----4-5-/
E/-5-7--------------5-7----------------------/-5-7----/

CORO
G/---------------------------------------------------/
D/-7-9-9----7-9-7--7-9-9---7-9-7-0-0-5-5-7-7-5-7-5-0-/
A/-------7-7------5-----7-7--------------------------/
E/---------------------------------------------------/

G/---------------------/---------------------------5------/
D/---8-10-10---8-10-8--/----6-6-8-8-6-8-6---6-6-8-8-------/
A/-6--------8-8------6-/-6-6-------------6-6-----------56-/
E/---------------------/----------------------------6/8---/

G/---------------------------------------------/
D/---------8-87-78--------6-6-8-8-5-5-6-6-8-8--/
A/----6-8-8----8-----5-6-6-------------------6-/
E/-6-8------------6-8--------------------------/

Comentarios del colaborador: Espero que les guste y les agrade y ojela les haya servido

Calificar esta versión:
Aviso: Este fichero es trabajo propio de su transcriptor y representa su interpretación personal de la canción. El material contenido en esta página es para exclusivo uso privado, por lo que se prohibe su reproducción o retransmisión, así como su uso para fines comerciales.