Rhinestone Eyes, Gorillaz (tablatura)

Autor: Anónimo | 23167 visualizaciones

Versos:
|----------------------------------------------| 
|----------------------------------------------| 
|-5-6---6-6-5-6-5--5-6---6-6-5-6/8-------------| 
|-8-8---8-8-8-8-8--8-8---8-8-8-8---------------| 
|----------------------------------------------| 
|----------------------------------------------| 

|----------------------------------------------| 
|-------------------------6--------------------| 
|-5-6---6-6-5-5-6-8---------8-6----------------| 
|-8-8---8-8-8-8-8-8-------8-8-8----------------| 
|----------------------------------------------| 
|----------------------------------------------| 

Estribillo 
|----------------------------------------------| 
|-7-7-7-7-6---------6/7-7-7-7-6----------------| 
|------------------6----------------------6----| 
|--------------8-8-------------------8-8-------| 
|----------------------------------------------| 
|----------------------------------------------| 

|----------------------------------------------| 
|----------------------------------------------| 
|-8-8-8-8-6-------6-6/8-8-8-8-6---------6------| 
|--------------8-8------------------8-8--------| 
|----------------------------------------------| 
|----------------------------------------------| 


O entre los versos también: 
(Notas: G#m - F#m, G#m - G#m - F#m, G#m - G#m - F#m, G#m - G#m - A#m, G#m) 

|----------------------------------------------| 
|--9-7---9-9-7---9-9-7---9-11---9--------------| 
|--8-6---8-8-6---8-8-6---8-10---8--------------| 
|--6-4---6-6-4---6-6-4---6-8----6--------------| 
|----------------------------------------------| 
|----------------------------------------------| 

Hecho por:
MatiasRck/FolkPunker
Aviso: Este fichero es trabajo propio de su transcriptor y representa su interpretación personal de la canción. El material contenido en esta página es para exclusivo uso privado, por lo que se prohibe su reproducción o retransmisión, así como su uso para fines comerciales.

Comentarios en Facebook: