I Stand Alone, Godsmack (tablatura)

Autor: cristan | 18694 visualizaciones



aca les va esta cancionzasa de god smack que esta al 100000 recontra bien cualquier duda 
solo escribir a mi correo linkinparknum@hotmail.com un consejo escuchenbla bien y 
sigan el ritmo y rayense que viva el rockkkkkkkkkkkk

Intro
D|-------------------------------------||8X
A|-------------------------------------||
F|-------------------------------------||
C|-------------------------------------||
G|-------------------------------------||
C|0-0-0-19-19--0-0-0-20-20--0-0-20-20--||

Verse
D|-----------------------------------------||
A|-----------------------------------------||
F|-----------------------------------------||
C|-0---xxx--0--xx---6-6--0--xx-00-x-5p3-5p3|
G|-0---xxx--0--xx---6-6--0--xx-00-x-5p3-5p3||
C|-0---xxx--0--xx---6-6--0--xx-00-x-5p3-5p3||

D|----------------------------------||
A|----------------------------------||
F|----------------------------------||
C|-0---xxx--0--xx---6-6--0--xx-00-xx|
G|-0---xxx--0--xx---6-6--0--xx-00-xx||
C|-0---xxx--0--xx---6-6--0--xx-00-xx||

D|-----------------------------------------||
A|-----------------------------------------||
F|-----------------------------------------||
C|-0---xxx--0--xx---6-6--0--xx-00-x-5p3-5p3|
G|-0---xxx--0--xx---6-6--0--xx-00-x-5p3-5p3||
C|-0---xxx--0--xx---6-6--0--xx-00-x-5p3-5p3||

D|------------------------||
A|------------------------||
F|------------------------||
C|-0---xxx--0--xx---6-6---|
G|-0---xxx--0--xx---6-6---||
C|-0---xxx--0--xx---6-6---||

Chorus
D|-------------------------------------||2X
A|-------------------------------------||
F|-------------------------------------||
C|-------------------------------------||
G|-------------------------------------||
C|0-0-0-19-19--0-0-0-20-20--0-0-20-20--||


Verse
D|-----------------------------------------||
A|-----------------------------------------||
F|-----------------------------------------||
C|-0---xxx--0--xx---6-6--0--xx-00-x-5p3-5p3|
G|-0---xxx--0--xx---6-6--0--xx-00-x-5p3-5p3||
C|-0---xxx--0--xx---6-6--0--xx-00-x-5p3-5p3||

D|----------------------------------||
A|----------------------------------||
F|----------------------------------||
C|-0---xxx--0--xx---6-6--0--xx-00-xx|
G|-0---xxx--0--xx---6-6--0--xx-00-xx||
C|-0---xxx--0--xx---6-6--0--xx-00-xx||

D|-----------------------------------------||
A|-----------------------------------------||
F|-----------------------------------------||
C|-0---xxx--0--xx---6-6--0--xx-00-x-5p3-5p3|
G|-0---xxx--0--xx---6-6--0--xx-00-x-5p3-5p3||
C|-0---xxx--0--xx---6-6--0--xx-00-x-5p3-5p3||

D|---------------------------||
A|---------------------------||
F|---------------------------||
C|-0---xxx--0--xx---6-6-xx-6-|
G|-0---xxx--0--xx---6-6-xx-6-||
C|-0---xxx--0--xx---6-6-xx-6-||

D|-----------------||
A|-----------------||
F|-----------------||
C|-5-5-5--8-8-8----||
G|-5-5--5-8-8--8---||
C|-5-5----8-8------||

Chorus
D|-------------------------------------||4X
A|-------------------------------------||
F|-------------------------------------||
C|-------------------------------------||
G|-------------------------------------||
C|0-0-0-19-19--0-0-0-20-20--0-0-20-20--||

D|-----------------||
A|-----------------||
F|-----------------||
C|-5-5-5--8-8-8----||
G|-5-5--5-8-8--8---||
C|-5-5----8-8------||

Chorus
D|-------------------------------------||
A|-------------------------------------||
F|-------------------------------------||
C|-------------------------------------||
G|-------------------------------------||
C|0-0-0-19-19--0-0-0-20-20--0-0-20-20--||

D|-----------------||
A|-----------------||
F|-----------------||
C|-5-5-5--8-8-8----||
G|-5-5--5-8-8--8---||
C|-5-5----8-8------||

D|-------------------------------------||
A|-------------------------------------||
F|-------------------------------------||
C|-------------------------------------||
G|-------------------------------------||
C|0-0-0-19-19--0-0-0-20-20--0-0-20-20--||


Bridge         
D|------------|-----------------------------|
A|------------|-----------------------------| tocar x4
F|------------|-----------------------------|
C|5-----------|------0----------0-----5---5-|
G|5-----------|---0--0--------0-0----3---3--|
C|5-----------|0--------0---0-------3---3---|

Verse
D|-----------------------------------------||
A|-----------------------------------------||
F|-----------------------------------------||
C|-0---xxx--0--xx---6-6--0--xx-00-x-5p3-5p3|
G|-0---xxx--0--xx---6-6--0--xx-00-x-5p3-5p3||
C|-0---xxx--0--xx---6-6--0--xx-00-x-5p3-5p3||

D|-----------------||1X
A|-----------------||
F|-----------------||
C|--5?6-6----------||
G|--5?6-6----------||
C|--5?6-6----------||

D|-------------------------------------||
A|-------------------------------------||
F|-------------------------------------||
C|-------------------------------------||
G|-------------------------------------||
C|0-0-0-19-19--0-0-0-20-20--0-0-20-20--||

D|-----------------||
A|-----------------||
F|-----------------||
C|-5-5-5--8-8-8----||
G|-5-5--5-8-8--8---||
C|-5-5----8-8------||

D|-------------------------------------||
A|-------------------------------------||
F|-------------------------------------||
C|-------------------------------------||
G|-------------------------------------||
C|0-0-0-19-19--0-0-0-20-20--0-0-20-20--||

D|-----------------||
A|-----------------||
F|-----------------||
C|-5-5-5--8-8-8----||
G|-5-5--5-8-8--8---||
C|-5-5----8-8------||

D|-------------------------------------||2X
A|-------------------------------------||
F|-------------------------------------||
C|-------------------------------------||
G|-------------------------------------||
C|0-0-0-19-19--0-0-0-20-20--0-0-20-20--||

D|----------------------------||2X
A|----------------------------||
F|----------------------------||
C|----------------------------||
G|----7-7-----8-8------8-8----||
C|0-0-7-7-0-0-8-8-0-0--8-8----||

D|--------------||
A|--------------||
F|--------------||
C|8/------------||
G|8/------------||
C|8/------------||





Calificar esta versión:
Aviso: Este fichero es trabajo propio de su transcriptor y representa su interpretación personal de la canción. El material contenido en esta página es para exclusivo uso privado, por lo que se prohibe su reproducción o retransmisión, así como su uso para fines comerciales.