Bad Religion, Godsmack (tablatura)

Autor: aori_moni | 34770 visualizaciones

Intro 
E|----------------------| 
B|----------------------| 
G|----------------------| 
D|-0-x-0-x-00-x-0-x-00--| 
A|-0-x-0-x-00-x-0-x-00--| 
D|-0-x-0-x-00-x-0-x-00--| 

Verso (x6) 
E|-----------------------------------------------------|------| 
B|-----------------------------------------------------|------| 
G|-----------------------------------------------------|------| 
D|-0-x-0-x-00-x-0-x-0-x-00-x-0-x-0-x-00-x-0-x-0-x-00-x-|-(0)--| 
A|-0-x-0-x-00-x-0-x-0-x-00-x-0-x-0-x-00-x-0-x-0-x-00-x-|-(0)--| 
D|-0-x-0-x-00-x-0-x-0-x-00-x-0-x-0-x-00-x-0-x-0-x-00-x-|-(0)--| 

E|---------------------------------------------------------------------|
B|---------------------------------------------------------------------|
G|--7/5-5-5-5-5-5-5-5-5-5-5-5-5-5-5---10/7-7-7-7-7-7-7-7-7-7-7-7-7-7-7-|
D|--x-x-x-x-x-x-x-x-x-x-x-x-x-x-x-x----x-x-x-x-x-x-x-x-x-x-x-x-x-x-x-x-|
A|--5/3-3-3-3-3-3-3-3-3-3-3-3-3-3-3----8/5-5-5-5-5-5-5-5-5-5-5-5-5-5-5-|
D|---------------------------------------------------------------------|
 X=silencio

(Este es el coro) 
E|-------------------------------------------------- | 
B|-------------------------------------------------- | 
G|--7/5-5-5-5-5-5-5-5-5-5--------------------------- | 
D|--x-x-x-x-x-x-x-x-x-x-x------0-x-0-x-00-x-0-x-00-- | 
A|--5/3-3-3-3-3-3-3-3-3-3------0-x-0-x-00-x-0-x-00-- | 
D|-----------------------------0-x-0-x-00-x-0-x-00-- | 
x = silenciar cadena 
 /= deslizar

Volver al verso (x6) 
  Entonces segundo coro dos veces y en la segunda acaba así:

E|--------------------------------------------------------------------------|
B|--------------------------------------------------------------------------|
G|--7/5-5-5-5-5-5-5-5-5-5---------------------------------------------------|
D|--x-x-x-x-x-x-x-x-x-x-x-----7�---7--8-7--7-7--8-7--7-7--7---5---3---1-----|
A|--5/3-3-3-3-3-3-3-3-3-3-----7�---7--8-7--7-7--8-7--7-7--7---5---3---1-----|
D|----------------------------7�---7--8-7--7-7--8-7--7-7--7---5---3---1-----|

Esto seria el solo:
E|------------------------------------------------------------- | 
B|------------------------------------------------------------- | 
G|--7--------5------------------5---------4-------------------- | x3 
D|--x--------x------------------x---------x-------------------- | 
A|--5--------3------------------3---------2-------------------- | 
D|-----0-0-0----0-0--3p1--3/5------0-0-0------0-0--3p1--3/5---- | 


Después va el verso tiene unos arreglos ahí busquen la manera de 
Acomodarlos. Y termina.





ahi les va una version un tono arriba para los ke no la alcancen
con la voz:


Intro 
E|----------------------| 
B|----------------------| 
G|----------------------| 
D|-2-x-2-x-22-x—2-x-22--| 
A|-2-x-2-x-22-x-2-x-22--| 
E|-0-x-0-x-00-x-0-x-00--| 

Verso (x6) 
E|-----------------------------------------------------|------| 
B|-----------------------------------------------------|------| 
G|-----------------------------------------------------|------| 
D|-2-x-2-x-22-x-2-x-2-x-22-x-2-x-2-x-22-x-2-x-2-x-22-x-|-(2)--| 
A|-2-x-2-x-22-x-2-x-2-x-22-x-2-x-2-x-22-x-2-x-2-x-22-x-|-(2)--|
E|-0-x-0-x-00-x-0-x-0-x-00-x-0-x-0-x-00-x-0-x-0-x-00-x-|-(0)--| 
  X=silencio

(Este es el coro) 
E|----------------------------------------------------------------------|
B|----------------------------------------------------------------------|
G|--9/7-7-7-7-7-7-7-7-7-7-7-7-7-7-7---12/9-9-9-9-9-9-9-9-9-9-9-9-9-9-9--|
D|--x-x-x-x-x-x-x-x-x-x-x-x-x-x-x-x----x-x-x-x-x-x-x-x-x-x-x-x-x-x-x-x--|
A|--7/5-5-5-5-5-5-5-5-5-5-5-5-5-5-5---10/7-7-7-7-7-7-7-7-7-7-7-7-7-7-7--|
E|----------------------------------------------------------------------|

E|------------------------------------------------- | 
B|------------------------------------------------- | 
G|--97-7-7-7-7-7-7-7-7-7--------------------------- | 
D|--x-x-x-x-x-x-x-x-x-x-x-----2-x-2-x-22-x-2-x-22-- | 
A|--75-5-5-5-5-5-5-5-5-5------2-x-2-x-22-x-2-x-22-- | 
E|----------------------------0-x-0-x-00-x-0-x-00-- | 


x = silenciar cadena 
/ = deslizar

Volver al verso (x6) 
  Entonces segundo coro dos veces y en la segunda acaba así:
E|---------------------------------------------------------------------------|
B|---------------------------------------------------------------------------|
G|--97-7-7-7-7-7-7-7-7-7-----------------------------------------------------|
D|--x-x-x-x-x-x-x-x-x-x-x----9�---9--10-9--9-9--10-9--9-9--9---7---5---3-----|
A|--75-5-5-5-5-5-5-5-5-5-----9�---9--10-9--9-9--10-9--9-9--9---7---5---3-----|
E|---------------------------7�---7---8-7--7-7---8-7--7-7--7---5---3---1-----|

Esto seria el solo:
E|------------------------------------------------------------- | 
B|------------------------------------------------------------- | 
G|--9--------7------------------7---------6-------------------- |     
D|--x--------x------------------x---------x-------------------- | 
A|--7--------5------------------5---------4-------------------- | 
E|-----0-0-0-----0---5p3--5/7------0-0-0------0-0--5p3--5/7---- | 



Calificar esta versión:
Aviso: Este fichero es trabajo propio de su transcriptor y representa su interpretación personal de la canción. El material contenido en esta página es para exclusivo uso privado, por lo que se prohibe su reproducción o retransmisión, así como su uso para fines comerciales.